  0
SECTION
  2
HEADER
  9
$ACADVER
  1
AC1014
  9
$ACADMAINTVER
 70
             0
  9
$DWGCODEPAGE
  3
ANSI_1252
  9
$INSBASE
 10
0.0
 20
0.0
 30
0.0
  9
$EXTMIN
 10
1.00000000000000E+20
 20
1.00000000000000E+20
 30
1.00000000000000E+20
  9
$EXTMAX
 10
-1.00000000000000E+20
 20
-1.00000000000000E+20
 30
-1.00000000000000E+20
  9
$LIMMIN
 10
0.0
 20
0.0
  9
$LIMMAX
 10
0.0
 20
0.0
  9
$ORTHOMODE
 70
             0
  9
$REGENMODE
 70
             1
  9
$FILLMODE
 70
             1
  9
$QTEXTMODE
 70
             0
  9
$MIRRTEXT
 70
             1
  9
$DRAGMODE
 70
             2
  9
$LTSCALE
 40
1.0
  9
$OSMODE
 70
             0
  9
$ATTMODE
 70
             1
  9
$TEXTSIZE
 40
0.2
  9
$TRACEWID
 40
0.05
  9
$TEXTSTYLE
  7
STANDARD
  9
$CLAYER
  8
0
  9
$CELTYPE
  6
CONTINUOUS
  9
$CECOLOR
 62
           256
  9
$CELTSCALE
 40
1.0
  9
$DELOBJ
 70
             1
  9
$DISPSILH
 70
             0
  9
$DIMSCALE
 40
1.0
  9
$DIMASZ
 40
0.18
  9
$DIMEXO
 40
0.0625
  9
$DIMDLI
 40
0.38
  9
$DIMRND
 40
0.0
  9
$DIMDLE
 40
0.0
  9
$DIMEXE
 40
0.18
  9
$DIMTP
 40
0.0
  9
$DIMTM
 40
0.0
  9
$DIMTXT
 40
0.18
  9
$DIMCEN
 40
0.09
  9
$DIMTSZ
 40
0.0
  9
$DIMTOL
 70
             0
  9
$DIMLIM
 70
             0
  9
$DIMTIH
 70
             1
  9
$DIMTOH
 70
             1
  9
$DIMSE1
 70
             0
  9
$DIMSE2
 70
             0
  9
$DIMTAD
 70
             0
  9
$DIMZIN
 70
             0
  9
$DIMBLK
  1

  9
$DIMASO
 70
             1
  9
$DIMSHO
 70
             1
  9
$DIMPOST
  1

  9
$DIMAPOST
  1

  9
$DIMALT
 70
             0
  9
$DIMALTD
 70
             2
  9
$DIMALTF
 40
25.4
  9
$DIMLFAC
 40
1.0
  9
$DIMTOFL
 70
             0
  9
$DIMTVP
 40
0.0
  9
$DIMTIX
 70
             0
  9
$DIMSOXD
 70
             0
  9
$DIMSAH
 70
             0
  9
$DIMBLK1
  1

  9
$DIMBLK2
  1

  9
$DIMSTYLE
  2
STANDARD
  9
$DIMCLRD
 70
             0
  9
$DIMCLRE
 70
             0
  9
$DIMCLRT
 70
             0
  9
$DIMTFAC
 40
1.0
  9
$DIMGAP
 40
0.09
  9
$DIMJUST
 70
             0
  9
$DIMSD1
 70
             0
  9
$DIMSD2
 70
             0
  9
$DIMTOLJ
 70
             1
  9
$DIMTZIN
 70
             0
  9
$DIMALTZ
 70
             0
  9
$DIMALTTZ
 70
             0
  9
$DIMFIT
 70
             3
  9
$DIMUPT
 70
             0
  9
$DIMUNIT
 70
             2
  9
$DIMDEC
 70
             4
  9
$DIMTDEC
 70
             4
  9
$DIMALTU
 70
             2
  9
$DIMALTTD
 70
             2
  9
$DIMTXSTY
  7
STANDARD
  9
$DIMAUNIT
 70
             0
  9
$LUNITS
 70
             2
  9
$LUPREC
 70
             4
  9
$SKETCHINC
 40
0.1
  9
$FILLETRAD
 40
0.0
  9
$AUNITS
 70
             0
  9
$AUPREC
 70
             0
  9
$MENU
  1
acad
  9
$ELEVATION
 40
0.0
  9
$PELEVATION
 40
0.0
  9
$THICKNESS
 40
0.0
  9
$LIMCHECK
 70
             0
  9
$BLIPMODE
 70
             1
  9
$CHAMFERA
 40
0.0
  9
$CHAMFERB
 40
0.0
  9
$CHAMFERC
 40
0.0
  9
$CHAMFERD
 40
0.0
  9
$SKPOLY
 70
             0
  9
$TDCREATE
 40
0.000000000
  9
$TDUPDATE
 40
0.000000000
  9
$TDINDWG
 40
0.0000000000
  9
$TDUSRTIMER
 40
0.0000000000
  9
$USRTIMER
 70
             1
  9
$ANGBASE
 50
0.0
  9
$ANGDIR
 70
             0
  9
$PDMODE
 70
             0
  9
$PDSIZE
 40
0.0
  9
$PLINEWID
 40
0.0
  9
$COORDS
 70
             0
  9
$SPLFRAME
 70
             0
  9
$SPLINETYPE
 70
             6
  9
$SPLINESEGS
 70
             8
  9
$ATTDIA
 70
             0
  9
$ATTREQ
 70
             1
  9
$HANDLING
 70
             1
  9
$HANDSEED
  5
12A
  9
$SURFTAB1
 70
             6
  9
$SURFTAB2
 70
             6
  9
$SURFTYPE
 70
             6
  9
$SURFU
 70
             6
  9
$SURFV
 70
             6
  9
$UCSNAME
  2

  9
$UCSORG
 10
0.0
 20
0.0
 30
0.0
  9
$UCSXDIR
 10
1.0
 20
0.0
 30
0.0
  9
$UCSYDIR
 10
0.0
 20
1.0
 30
0.0
  9
$PUCSNAME
  2

  9
$PUCSORG
 10
0.0
 20
0.0
 30
0.0
  9
$PUCSXDIR
 10
1.0
 20
0.0
 30
0.0
  9
$PUCSYDIR
 10
0.0
 20
1.0
 30
0.0
  9
$USERI1
 70
             0
  9
$USERI2
 70
             0
  9
$USERI3
 70
             0
  9
$USERI4
 70
             0
  9
$USERI5
 70
             0
  9
$USERR1
 40
11.0
  9
$USERR2
 40
0.0
  9
$USERR3
 40
0.0
  9
$USERR4
 40
0.0
  9
$USERR5
 40
0.0
  9
$WORLDVIEW
 70
             1
  9
$SHADEDGE
 70
             3
  9
$SHADEDIF
 70
            70
  9
$TILEMODE
 70
             1
  9
$MAXACTVP
 70
            16
  9
$PINSBASE
 10
0.0
 20
0.0
 30
0.0
  9
$PLIMCHECK
 70
             0
  9
$PEXTMIN
 10
1.00000000000000E+20
 20
1.00000000000000E+20
 30
1.00000000000000E+20
  9
$PEXTMAX
 10
-1.00000000000000E+20
 20
-1.00000000000000E+20
 30
-1.00000000000000E+20
  9
$PLIMMIN
 10
0.0
 20
0.0
  9
$PLIMMAX
 10
12.0
 20
9.0
  9
$UNITMODE
 70
             0
  9
$VISRETAIN
 70
             0
  9
$PLINEGEN
 70
             1
  9
$PSLTSCALE
 70
             0
  9
$TREEDEPTH
 70
          3020
  9
$PICKSTYLE
 70
             1
  9
$CMLSTYLE
  2
STANDARD
  9
$CMLJUST
 70
             0
  9
$CMLSCALE
 40
1.0
  9
$PROXYGRAPHICS
 70
             0
  9
$MEASUREMENT
 70
             1
  0
ENDSEC
  0
SECTION
  2
CLASSES
  0
CLASS
  1
LWPOLYLINE
  2
AcDbPolyline
  3
"AutoCAD"
 90
        0
280
             0
281
             1
  0
CLASS
  1
IMAGE
  2
AcDbRasterImage
  3
ISM
 90
      127
280
             0
281
             1
  0
CLASS
  1
OLE2FRAME
  2
AcDbOle2Frame
  3
""
 90
        0
280
             0
281
             1
  0
CLASS
  1
HATCH
  2
AcDbHatch
  3
"ACAD_SEDONA"
 90
        0
280
             0
281
             1
  0
CLASS
  1
DICTIONARYVAR
  2
AcDbDictionaryVar
  3
"AutoCAD"
 90
        0
280
             0
281
             0
  0
CLASS
  1
RASTERVARIABLES
  2
AcDbRasterVariables
  3
ISM
 90
        0
280
             0
281
             0
  0
CLASS
  1
IMAGEDEF
  2
AcDbRasterImageDef
  3
ISM
 90
        0
280
             0
281
             0
  0
CLASS
  1
IMAGEDEF_REACTOR
  2
AcDbRasterImageDefReactor
  3
ISM
 90
        1
280
             0
281
             0
  0
CLASS
  1
IDBUFFER
  2
AcDbIdBuffer
  3
"Acad"
 90
        0
280
             0
281
             0
  0
CLASS
  1
SPATIAL_FILTER
  2
AcDbSpatialFilter
  3
"Acad"
 90
        0
280
             0
281
             0
  0
CLASS
  1
XRECORD
  2
AcDbXrecord
  3
"<Built In>"
 90
        0
280
             0
281
             0
  0
CLASS
  1
SORTENTSTABLE
  2
AcDbSortentsTable
  3
"AutoCAD"
 90
        0
280
             0
281
             0
  0
CLASS
  1
LAYER_INDEX
  2
AcDbLayerIndex
  3
"Acad"
 90
        0
280
             0
281
             0
  0
CLASS
  1
SPATIAL_INDEX
  2
AcDbSpatialIndex
  3
"Acad"
 90
        0
280
             0
281
             0
  0
CLASS
  1
OBJECT_PTR
  2
CAseDLPNTableRecord
  3
"ASE-LPNTableRecord"
 90
        1
280
             0
281
             0
  0
CLASS
  1
LAYOUT
  2
AcDbLayout
  3
"AutoCAD 2000"
 90
        1
280
             0
281
             0
  0
CLASS
  1
PLOTSETTINGS
  2
AcDbPlotSettings
  3
"AutoCAD 2000"
 90
        1
280
             0
281
             0
  0
CLASS
  1
ACDBDICTIONARYWDFLT
  2
AcDbDictionaryWithDefault
  3
"AutoCAD 2000"
 90
        1
280
             0
281
             0
  0
CLASS
  1
ACDBPLACEHOLDER
  2
AcDbPlaceHolder
  3
"AutoCAD 2000"
 90
        1
280
             0
281
             0
  0
CLASS
  1
VBA_PROJECT
  2
AcDbVbaProject
  3
"acadvba"
 90
        1
280
             0
281
             0
  0
CLASS
  1
WIPEOUT
  2
AcDbWipeout
  3
WipeOut|AutoCAD Express Tool|expresstools@autodesk.com
 90
      127
280
             0
281
             1
  0
CLASS
  1
WIPEOUTVARIABLES
  2
AcDbWipeoutVariables
  3
WipeOut|AutoCAD Express Tool|expresstools@autodesk.com
 90
        0
280
             0
281
             0
  0
CLASS
  1
RTEXT
  2
RText
  3
RText|AutoCAD Express Tool|expresstools@autodesk.com
 90
        0
280
             0
281
             1
  0
CLASS
  1
ARCALIGNEDTEXT
  2
AcDbArcAlignedText
  3
ATEXT|AutoCAD Express Tool|expresstools@autodesk.com
 90
        0
280
             0
281
             1
  0
ENDSEC
  0
SECTION
  2
TABLES
  0
TABLE
  2
VPORT
  5
7
100
AcDbSymbolTable
 70
             1
  0
VPORT
  5
15
100
AcDbSymbolTableRecord
100
AcDbViewportTableRecord
  2
*ACTIVE
 70
             0
 10
0.0
 20
0.0
 11
1.0
 21
1.0
 12
-175.74816364761051
 22
-161.90946121209998
 13
0.0
 23
0.0
 14
1.0
 24
1.0
 15
0.0
 25
0.0
 16
0.0
 26
0.0
 36
1.0
 17
0.0
 27
0.0
 37
0.0
 40
265.73056057265472
 41
1.60267857142857
 42
50.0
 43
0.0
 44
0.0
 50
0.0
 51
0.0
 71
             0
 72
           100
 73
             1
 74
             1
 75
             0
 76
             0
 77
             0
 78
             0
  0
ENDTAB
  0
TABLE
  2
LTYPE
  5
4
100
AcDbSymbolTable
 70
            10
  0
LTYPE
  5
11
100
AcDbSymbolTableRecord
100
AcDbLinetypeTableRecord
  2
BYBLOCK
 70
            64
  3

 72
            65
 73
             0
 40
0.0
  0
LTYPE
  5
12
100
AcDbSymbolTableRecord
100
AcDbLinetypeTableRecord
  2
BYLAYER
 70
            64
  3

 72
            65
 73
             0
 40
0.0
  0
LTYPE
  5
13
100
AcDbSymbolTableRecord
100
AcDbLinetypeTableRecord
  2
CONTINUOUS
 70
            64
  3
Solid line
 72
            65
 73
             0
 40
0.0
  0
LTYPE
  5
1D
100
AcDbSymbolTableRecord
100
AcDbLinetypeTableRecord
  2
DASHED
 70
            64
  3
Dashed
 72
            65
 73
             2
 40
15.0
 49
12.0
 74
             0
 49
-3.0
 74
             0
  0
LTYPE
  5
1E
100
AcDbSymbolTableRecord
100
AcDbLinetypeTableRecord
  2
DOTTED
 70
            64
  3
Dotted
 72
            65
 73
             2
 40
3.5
 49
0.5
 74
             0
 49
-3.0
 74
             0
  0
LTYPE
  5
1F
100
AcDbSymbolTableRecord
100
AcDbLinetypeTableRecord
  2
DOT_CENTER
 70
            64
  3
Dot_Center
 72
            65
 73
             4
 40
2.0
 49
1.25
 74
             0
 49
-0.25
 74
             0
 49
0.25
 74
             0
 49
-0.25
 74
             0
  0
LTYPE
  5
20
100
AcDbSymbolTableRecord
100
AcDbLinetypeTableRecord
  2
LONG_DASHED
 70
            64
  3
Long_Dashed
 72
            65
 73
             2
 40
2.0
 49
1.5
 74
             0
 49
-0.5
 74
             0
  0
LTYPE
  5
21
100
AcDbSymbolTableRecord
100
AcDbLinetypeTableRecord
  2
DASH_CENTER
 70
            64
  3
Dash_Center
 72
            65
 73
             4
 40
36.0
 49
24.0
 74
             0
 49
-3.0
 74
             0
 49
6.0
 74
             0
 49
-3.0
 74
             0
  0
LTYPE
  5
22
100
AcDbSymbolTableRecord
100
AcDbLinetypeTableRecord
  2
PHANTOM
 70
            64
  3
Phantom
 72
            65
 73
             6
 40
2.5
 49
1.25
 74
             0
 49
-0.25
 74
             0
 49
0.25
 74
             0
 49
-0.25
 74
             0
 49
0.25
 74
             0
 49
-0.25
 74
             0
  0
LTYPE
  5
23
100
AcDbSymbolTableRecord
100
AcDbLinetypeTableRecord
  2
CENTER_DASH_DASH
 70
            64
  3
Center_Dash_Dash
 72
            65
 73
             6
 40
22.0
 49
12.0
 74
             0
 49
-3.0
 74
             0
 49
0.5
 74
             0
 49
-3.0
 74
             0
 49
0.5
 74
             0
 49
-3.0
 74
             0
  0
ENDTAB
  0
TABLE
  2
LAYER
  5
2
100
AcDbSymbolTable
 70
             2
  0
LAYER
  5
14
100
AcDbSymbolTableRecord
100
AcDbLayerTableRecord
  2
0
 70
             0
 62
             7
  6
CONTINUOUS
  0
LAYER
  5
24
100
AcDbSymbolTableRecord
100
AcDbLayerTableRecord
  2
1
 70
             0
 62
             7
  6
CONTINUOUS
  0
ENDTAB
  0
TABLE
  2
STYLE
  5
3
100
AcDbSymbolTable
 70
             1
  0
STYLE
  5
17
100
AcDbSymbolTableRecord
100
AcDbTextStyleTableRecord
  2
STANDARD
 70
             0
 40
0.0
 41
1.0
 50
0.0
 71
             0
 42
0.0
  3
txt
  4

  0
ENDTAB
  0
TABLE
  2
VIEW
  5
5
100
AcDbSymbolTable
 70
             0
  0
ENDTAB
  0
TABLE
  2
UCS
  5
6
100
AcDbSymbolTable
 70
             0
  0
ENDTAB
  0
TABLE
  2
APPID
  5
8
100
AcDbSymbolTable
 70
             1
  0
APPID
  5
16
100
AcDbSymbolTableRecord
100
AcDbRegAppTableRecord
  2
ACAD
 70
             0
  0
ENDTAB
  0
TABLE
  2
DIMSTYLE
  5
9
100
AcDbSymbolTable
 70
             1
  0
DIMSTYLE
105
18
100
AcDbSymbolTableRecord
100
AcDbDimStyleTableRecord
  2
STANDARD
 70
             0
  3

  4

  5

  6

  7

 40
1.0
 41
0.18
 42
0.0625
 43
0.38
 44
0.18
 45
0.0
 46
0.0
 47
0.0
 48
0.0
 71
             0
 72
             0
 73
             1
 74
             1
 75
             0
 76
             0
 77
             0
 78
             0
140
0.18
141
0.09
142
0.0
143
25.4
144
1.0
145
0.0
146
1.0
147
0.09
170
             0
171
             2
172
             0
173
             0
174
             0
175
             0
176
             0
177
             0
178
             0
270
             2
271
             4
272
             4
273
             2
274
             2
275
             0
280
             0
281
             0
282
             0
283
             1
284
             0
285
             0
286
             0
287
             0
288
             0
340
17
  0
ENDTAB
  0
TABLE
  2
BLOCK_RECORD
  5
1
100
AcDbSymbolTable
 70
             0
  0
BLOCK_RECORD
  5
A
100
AcDbSymbolTableRecord
100
AcDbBlockTableRecord
  2
*MODEL_SPACE
  0
BLOCK_RECORD
  5
B
100
AcDbSymbolTableRecord
100
AcDbBlockTableRecord
  2
*PAPER_SPACE
  0
ENDTAB
  0
ENDSEC
  0
SECTION
  2
BLOCKS
  0
BLOCK
  5
D
100
AcDbEntity
  8
0
100
AcDbBlockBegin
  2
*MODEL_SPACE
 70
             0
 10
0.0
 20
0.0
 30
0.0
  3
*MODEL_SPACE
  1

  0
ENDBLK
  5
E
100
AcDbEntity
  8
0
100
AcDbBlockEnd
  0
BLOCK
  5
F
100
AcDbEntity
 67
             1
  8
0
100
AcDbBlockBegin
  2
*PAPER_SPACE
 70
             0
 10
0.0
 20
0.0
 30
0.0
  3
*PAPER_SPACE
  1

  0
ENDBLK
  5
10
100
AcDbEntity
 67
             1
  8
0
100
AcDbBlockEnd
  0
ENDSEC
  0
SECTION
  2
ENTITIES
  0
HATCH
  5
128
100
AcDbEntity
  8
1
  6
CONTINUOUS
 62
             7
100
AcDbHatch
 10
0.0
 20
0.0
 30
0.0
210
0.0
220
0.0
230
1.0
  2
USER
 70
             0
 71
             0
 91
        1
 92
        1
 93
       33
 72
             1
 10
-5.8184417724599999
 20
-133.509462738
 11
-3.8232788129120618
 21
-133.509462738
 72
             1
 10
-3.8232788129120618
 20
-133.509462738
 11
-2.5691574096699998
 21
-133.509462738
 72
             1
 10
-2.5691574096699998
 20
-133.509462738
 11
-0.069157409668
 21
-136.009462738
 72
             1
 10
-0.069157409668
 20
-136.009462738
 11
-0.069157409668
 21
-146.909461212
 72
             1
 10
-0.069157409668
 20
-146.909461212
 11
2.4308425903300002
 21
-146.909461212
 72
             1
 10
2.4308425903300002
 20
-146.909461212
 11
3.9308425903300002
 21
-148.409461212
 72
             1
 10
3.9308425903300002
 20
-148.409461212
 11
3.9308425903300002
 21
-151.909461212
 72
             1
 10
3.9308425903300002
 20
-151.909461212
 11
-14.069157409700001
 21
-151.909461212
 72
             1
 10
-14.069157409700001
 20
-151.909461212
 11
-14.069157409700001
 21
-153.909461212
 72
             1
 10
-14.069157409700001
 20
-153.909461212
 11
-28.069157409700001
 21
-153.909461212
 72
             1
 10
-28.069157409700001
 20
-153.909461212
 11
-32.687958145099998
 21
-161.909461212
 72
             1
 10
-32.687958145099998
 20
-161.909461212
 11
-28.069157409700001
 21
-169.909461212
 72
             1
 10
-28.069157409700001
 20
-169.909461212
 11
-14.069157409700001
 21
-169.909461212
 72
             1
 10
-14.069157409700001
 20
-169.909461212
 11
-14.069157409700001
 21
-171.909461212
 72
             1
 10
-14.069157409700001
 20
-171.909461212
 11
3.9308425903300002
 21
-171.909461212
 72
             1
 10
3.9308425903300002
 20
-171.909461212
 11
3.9308425903300002
 21
-175.409461212
 72
             1
 10
3.9308425903300002
 20
-175.409461212
 11
2.4308425903300002
 21
-176.909461212
 72
             1
 10
2.4308425903300002
 20
-176.909461212
 11
-0.069157409668
 21
-176.909461212
 72
             1
 10
-0.069157409668
 20
-176.909461212
 11
-0.069157409668
 21
-180.16243286100001
 72
             1
 10
-0.069157409668
 20
-180.16243286100001
 11
-6.3437103271500002
 21
-182.92009315499999
 72
             1
 10
-6.3437103271500002
 20
-182.92009315499999
 11
-15.0106430054
 21
-184.101947403
 72
             1
 10
-15.0106430054
 20
-184.101947403
 11
-20.657281112700002
 21
-181.081652832
 72
             1
 10
-20.657281112700002
 20
-181.081652832
 11
-28.930261993399998
 21
-177.53608970600001
 72
             1
 10
-28.930261993399998
 20
-177.53608970600001
 11
-32.738459777800003
 21
-173.202623367
 72
             1
 10
-32.738459777800003
 20
-173.202623367
 11
-33.263728332500001
 21
-166.505448151
 72
             1
 10
-33.263728332500001
 20
-166.505448151
 11
-33.920314407299998
 21
-159.808272934
 72
             1
 10
-33.920314407299998
 20
-159.808272934
 11
-32.475825500500001
 21
-153.636366272
 72
             1
 10
-32.475825500500001
 20
-153.636366272
 11
-31.031336593599999
 21
-147.46445961000001
 72
             1
 10
-31.031336593599999
 20
-147.46445961000001
 11
-27.091822052000001
 21
-144.44416503900001
 72
             1
 10
-27.091822052000001
 20
-144.44416503900001
 11
-22.6270385742
 21
-140.242015839
 72
             1
 10
-22.6270385742
 20
-140.242015839
 11
-19.081475067100001
 21
-137.74698982199999
 72
             1
 10
-19.081475067100001
 20
-137.74698982199999
 11
-12.3842998505
 21
-135.90854949999999
 72
             1
 10
-12.3842998505
 20
-135.90854949999999
 11
-5.8184417724599999
 21
-133.509462738
 97
        0
 75
             1
 76
             0
 52
45.0
 41
2.0
 77
             0
 78
             1
 53
45.0
 43
0.0
 44
0.0
 45
-1.4142135623730949
 46
1.4142135623730951
 79
             0
 98
        1
 10
0.0
 20
0.0
  0
ARC
  5
123
100
AcDbEntity
  8
0
  6
CONTINUOUS
 62
             3
100
AcDbCircle
 10
-419.23382155440299
 20
-198.86042719160201
 40
260.77668908902359
100
AcDbArc
 50
6.37401527990927
 51
21.11700189855556
  0
ARC
  5
122
100
AcDbEntity
  8
0
  6
CONTINUOUS
 62
             3
100
AcDbCircle
 10
-302.91021694089801
 20
-191.00836521149799
 40
9.98976564656243
100
AcDbArc
 50
56.31175686817727
 51
86.89525771653777
  0
ARC
  5
121
100
AcDbEntity
  8
0
  6
CONTINUOUS
 62
             3
100
AcDbCircle
 10
-301.54985613617799
 20
-188.12902201192301
 40
21.74792229557454
100
AcDbArc
 50
78.91678810351191
 51
92.15899116825148
  0
LINE
  5
120
100
AcDbEntity
  8
0
  6
CONTINUOUS
 62
             3
100
AcDbLine
 10
-297.36915664700001
 20
-186.909461212
 11
-297.36915664700001
 21
-186.42909469599999
  0
ARC
  5
11F
100
AcDbEntity
  8
0
  6
CONTINUOUS
 62
             3
100
AcDbCircle
 10
-298.28382079133701
 20
-187.36110817342399
 40
1.02009581643062
100
AcDbArc
 50
26.27944513748444
 51
66.01513632561411
  0
ARC
  5
11E
100
AcDbEntity
  8
0
  6
CONTINUOUS
 62
             3
100
AcDbCircle
 10
-302.91021627596501
 20
-132.810557689354
 40
9.98976551583601
100
AcDbArc
 50
-86.89526149516372
 51
-56.31176095174858
  0
ARC
  5
11D
100
AcDbEntity
  8
0
  6
CONTINUOUS
 62
             3
100
AcDbCircle
 10
-301.54984642985198
 20
-135.689900352633
 40
21.74792348309931
100
AcDbArc
 50
-92.15901664017797
 51
-78.91681477407005
  0
LINE
  5
11C
100
AcDbEntity
  8
0
  6
CONTINUOUS
 62
             3
100
AcDbLine
 10
-297.36915664700001
 20
-137.38983078000001
 11
-297.36915664700001
 21
-136.909462357
  0
ARC
  5
11B
100
AcDbEntity
  8
0
  6
CONTINUOUS
 62
             3
100
AcDbCircle
 10
-298.283822863164
 20
-136.457816939053
 40
1.0200969907536
100
AcDbArc
 50
-66.01503830520927
 51
-26.27931588308741
  0
ARC
  5
11A
100
AcDbEntity
  8
0
  6
CONTINUOUS
 62
             3
100
AcDbCircle
 10
-3.20449223192094
 20
-124.958486599528
 40
260.77669031643251
100
AcDbArc
 50
-173.62598284167257
 51
-158.88299617230837
  0
ARC
  5
119
100
AcDbEntity
  8
0
  6
CONTINUOUS
 62
             3
100
AcDbCircle
 10
37.9955080092387
 20
-198.860434457558
 40
260.77669040434887
100
AcDbArc
 50
158.88299650171578
 51
173.6259831460259
  0
ARC
  5
118
100
AcDbEntity
  8
0
  6
CONTINUOUS
 62
             3
100
AcDbCircle
 10
-460.43381992957501
 20
-124.958488209018
 40
260.77668939188499
100
AcDbArc
 50
-21.11700352706301
 51
-6.37401682519543
  0
ARC
  5
117
100
AcDbEntity
  8
0
  6
CONTINUOUS
 62
             3
100
AcDbCircle
 10
121.795507679944
 20
-198.860435802913
 40
260.77669022644881
100
AcDbArc
 50
158.88299616975058
 51
173.62598284423026
  0
ARC
  5
116
100
AcDbEntity
  8
0
  6
CONTINUOUS
 62
             3
100
AcDbCircle
 10
-335.43381984217399
 20
-198.86043419128401
 40
260.77668930209518
100
AcDbArc
 50
6.37401682216009
 51
21.11700352910053
  0
ARC
  5
115
100
AcDbEntity
  8
0
  6
CONTINUOUS
 62
             3
100
AcDbCircle
 10
162.99550809752199
 20
-124.958487947165
 40
260.77669049392853
100
AcDbArc
 50
-173.62598314396277
 51
-158.88299650477674
  0
ARC
  5
114
100
AcDbEntity
  8
0
  6
CONTINUOUS
 62
             3
100
AcDbCircle
 10
-294.23382164223699
 20
-124.958495210465
 40
260.77668917904771
100
AcDbArc
 50
-21.11700189608243
 51
-6.37401528254866
  0
LINE
  5
113
100
AcDbEntity
  8
1
  6
CONTINUOUS
 62
             3
100
AcDbLine
 10
-181.067947769
 20
-98.3094600677
 11
-200.36801872300001
 21
-98.3094600677
  0
LINE
  5
112
100
AcDbEntity
  8
1
  6
CONTINUOUS
 62
             3
100
AcDbLine
 10
-116.469155884
 20
-98.3094600677
 11
-97.1691566467
 21
-98.3094600677
  0
LINE
  5
111
100
AcDbEntity
  8
1
  6
CONTINUOUS
 62
             3
100
AcDbLine
 10
-56.0679477692
 20
-225.509462738
 11
-75.3680187225
 21
-225.509462738
  0
LINE
  5
110
100
AcDbEntity
  8
1
  6
CONTINUOUS
 62
             3
100
AcDbLine
 10
-56.0679477692
 20
-179.30946006799999
 11
-75.3680187225
 21
-179.30946006799999
  0
LINE
  5
10F
100
AcDbEntity
  8
1
  6
CONTINUOUS
 62
             3
100
AcDbLine
 10
-97.1691566467
 20
-144.509462738
 11
-116.1691566467
 21
-144.509462738
  0
LINE
  5
10E
100
AcDbEntity
  8
1
  6
CONTINUOUS
 62
             3
100
AcDbLine
 10
-200.36801872300001
 20
-144.509462738
 11
-181.067947769
 21
-144.509462738
  0
LINE
  5
10D
100
AcDbEntity
  8
0
  6
CONTINUOUS
 62
             3
100
AcDbLine
 10
-160.06915741
 20
-161.909461212
 11
-160.06915741
 21
-121.909461212
  0
LINE
  5
10C
100
AcDbEntity
  8
0
  6
CONTINUOUS
 62
             3
100
AcDbLine
 10
-160.06915741
 20
-121.909461212
 11
-175.969155884
 21
-93.9094612122
  0
LINE
  5
10B
100
AcDbEntity
  8
0
  6
CONTINUOUS
 62
             3
100
AcDbLine
 10
-160.06915741
 20
-169.909461212
 11
-160.06915741
 21
-161.909461212
  0
LINE
  5
10A
100
AcDbEntity
  8
0
  6
CONTINUOUS
 62
             3
100
AcDbLine
 10
-179.969155884
 20
-93.9094612122
 11
-179.969155884
 21
-153.909461212
  0
LINE
  5
109
100
AcDbEntity
  8
0
  6
CONTINUOUS
 62
             3
100
AcDbLine
 10
-160.06915741
 20
-169.909461212
 11
-160.06915741
 21
-236.909461212
  0
LINE
  5
108
100
AcDbEntity
  8
0
  6
CONTINUOUS
 62
             3
100
AcDbLine
 10
-160.06915741
 20
-236.909461212
 11
-179.969155884
 21
-236.909461212
  0
LINE
  5
107
100
AcDbEntity
  8
0
  6
CONTINUOUS
 62
             3
100
AcDbLine
 10
-179.969155884
 20
-236.909461212
 11
-179.969155884
 21
-153.909461212
  0
LINE
  5
106
100
AcDbEntity
  8
0
  6
CONTINUOUS
 62
             3
100
AcDbLine
 10
-361.36915664700001
 20
-148.909461212
 11
-362.36915664700001
 21
-149.909461212
  0
LINE
  5
105
100
AcDbEntity
  8
0
  6
CONTINUOUS
 62
             3
100
AcDbLine
 10
-362.36915664700001
 20
-173.909461212
 11
-362.36915664700001
 21
-149.909461212
  0
LINE
  5
104
100
AcDbEntity
  8
0
  6
CONTINUOUS
 62
             3
100
AcDbLine
 10
-362.36915664700001
 20
-173.909461212
 11
-361.36915664700001
 21
-174.909461212
  0
LINE
  5
103
100
AcDbEntity
  8
0
  6
CONTINUOUS
 62
             3
100
AcDbLine
 10
-361.36915664700001
 20
-174.909461212
 11
-351.36915664700001
 21
-174.909461212
  0
LINE
  5
102
100
AcDbEntity
  8
0
  6
CONTINUOUS
 62
             3
100
AcDbLine
 10
-351.36915664700001
 20
-148.909461212
 11
-361.36915664700001
 21
-148.909461212
  0
LINE
  5
101
100
AcDbEntity
  8
0
  6
CONTINUOUS
 62
             3
100
AcDbLine
 10
-361.36915664700001
 20
-174.909461212
 11
-361.36915664700001
 21
-148.909461212
  0
LINE
  5
100
100
AcDbEntity
  8
0
  6
CONTINUOUS
 62
             3
100
AcDbLine
 10
-349.36915664700001
 20
-141.909461212
 11
-351.36915664700001
 21
-143.909461212
  0
LINE
  5
FF
100
AcDbEntity
  8
0
  6
CONTINUOUS
 62
             3
100
AcDbLine
 10
-351.36915664700001
 20
-143.909461212
 11
-351.36915664700001
 21
-179.909461212
  0
LINE
  5
FE
100
AcDbEntity
  8
0
  6
CONTINUOUS
 62
             3
100
AcDbLine
 10
-351.36915664700001
 20
-179.909461212
 11
-349.36915664700001
 21
-181.909461212
  0
LINE
  5
FD
100
AcDbEntity
  8
0
  6
CONTINUOUS
 62
             3
100
AcDbLine
 10
-349.36915664700001
 20
-181.909461212
 11
-341.36915664700001
 21
-181.909461212
  0
LINE
  5
FC
100
AcDbEntity
  8
0
  6
CONTINUOUS
 62
             3
100
AcDbLine
 10
-341.36915664700001
 20
-141.909461212
 11
-349.36915664700001
 21
-141.909461212
  0
LINE
  5
FB
100
AcDbEntity
  8
0
  6
CONTINUOUS
 62
             3
100
AcDbLine
 10
-349.36915664700001
 20
-141.909461212
 11
-349.36915664700001
 21
-181.909461212
  0
LINE
  5
FA
100
AcDbEntity
  8
0
  6
CONTINUOUS
 62
             3
100
AcDbLine
 10
-339.36915664700001
 20
-139.53346176100001
 11
-341.36915664700001
 21
-141.53346176100001
  0
LINE
  5
F9
100
AcDbEntity
  8
0
  6
CONTINUOUS
 62
             3
100
AcDbLine
 10
-341.36915664700001
 20
-141.53346176100001
 11
-341.36915664700001
 21
-182.28546066300001
  0
LINE
  5
F8
100
AcDbEntity
  8
0
  6
CONTINUOUS
 62
             3
100
AcDbLine
 10
-341.36915664700001
 20
-182.28546066300001
 11
-339.36915664700001
 21
-184.28546066300001
  0
LINE
  5
F7
100
AcDbEntity
  8
0
  6
CONTINUOUS
 62
             3
100
AcDbLine
 10
-339.36915664700001
 20
-139.53346176100001
 11
-339.36915664700001
 21
-184.28546066300001
  0
LINE
  5
F6
100
AcDbEntity
  8
0
  6
CONTINUOUS
 62
             3
100
AcDbLine
 10
-339.36915664700001
 20
-184.28546066300001
 11
-330.36915664700001
 21
-184.28546066300001
  0
LINE
  5
F5
100
AcDbEntity
  8
0
  6
CONTINUOUS
 62
             3
100
AcDbLine
 10
-340.81215438800001
 20
-182.84246063200001
 11
-330.36915664700001
 21
-182.84246063200001
  0
LINE
  5
F4
100
AcDbEntity
  8
0
  6
CONTINUOUS
 62
             3
100
AcDbLine
 10
-330.36915664700001
 20
-139.53346176100001
 11
-339.36915664700001
 21
-139.53346176100001
  0
LINE
  5
F3
100
AcDbEntity
  8
0
  6
CONTINUOUS
 62
             3
100
AcDbLine
 10
-340.81215438800001
 20
-140.97646179200001
 11
-330.36915664700001
 21
-140.97646179200001
  0
LINE
  5
F2
100
AcDbEntity
  8
0
  6
CONTINUOUS
 62
             3
100
AcDbLine
 10
-330.36915664700001
 20
-139.409462357
 11
-329.86915664700001
 21
-138.909462357
  0
LINE
  5
F1
100
AcDbEntity
  8
0
  6
CONTINUOUS
 62
             3
100
AcDbLine
 10
-327.86915664700001
 20
-137.38983078000001
 11
-327.86915664700001
 21
-141.12272186300001
  0
LINE
  5
F0
100
AcDbEntity
  8
0
  6
CONTINUOUS
 62
             3
100
AcDbLine
 10
-327.86915664700001
 20
-137.38983078000001
 11
-329.86915664700001
 21
-139.35139961199999
  0
LINE
  5
EF
100
AcDbEntity
  8
0
  6
CONTINUOUS
 62
             3
100
AcDbLine
 10
-329.86915664700001
 20
-139.35139961199999
 11
-329.86915664700001
 21
-138.909462357
  0
LINE
  5
EE
100
AcDbEntity
  8
0
  6
CONTINUOUS
 62
             3
100
AcDbLine
 10
-297.36915664700001
 20
-186.909475708
 11
-290.86915741000001
 21
-186.90946426400001
  0
LINE
  5
ED
100
AcDbEntity
  8
0
  6
CONTINUOUS
 62
             3
100
AcDbLine
 10
-290.86915741000001
 20
-186.90946426400001
 11
-289.36915664700001
 21
-186.909461212
  0
LINE
  5
EC
100
AcDbEntity
  8
0
  6
CONTINUOUS
 62
             3
100
AcDbLine
 10
-327.86915664700001
 20
-186.42909469599999
 11
-297.36915664700001
 21
-186.42909469599999
  0
LINE
  5
EB
100
AcDbEntity
  8
0
  6
CONTINUOUS
 62
             3
100
AcDbLine
 10
-297.36915664700001
 20
-186.42909469599999
 11
-297.36915664700001
 21
-186.909461212
  0
LINE
  5
EA
100
AcDbEntity
  8
0
  6
CONTINUOUS
 62
             3
100
AcDbLine
 10
-329.86915664700001
 20
-181.03326263400001
 11
-327.86915664700001
 21
-182.69620132399999
  0
LINE
  5
E9
100
AcDbEntity
  8
0
  6
CONTINUOUS
 62
             3
100
AcDbLine
 10
-327.86915664700001
 20
-182.69620132399999
 11
-297.36915664700001
 21
-182.69620132399999
  0
LINE
  5
E8
100
AcDbEntity
  8
0
  6
CONTINUOUS
 62
             3
100
AcDbLine
 10
-297.36915664700001
 20
-182.69620132399999
 11
-297.36915664700001
 21
-181.03326263400001
  0
LINE
  5
E7
100
AcDbEntity
  8
0
  6
CONTINUOUS
 62
             3
100
AcDbLine
 10
-297.36915664700001
 20
-181.03326263400001
 11
-297.36915664700001
 21
-175.79871673599999
  0
LINE
  5
E6
100
AcDbEntity
  8
0
  6
CONTINUOUS
 62
             3
100
AcDbLine
 10
-327.86915664700001
 20
-186.42909469599999
 11
-329.86915664700001
 21
-184.467523575
  0
LINE
  5
E5
100
AcDbEntity
  8
0
  6
CONTINUOUS
 62
             3
100
AcDbLine
 10
-329.86915664700001
 20
-184.467523575
 11
-329.86915664700001
 21
-184.909461212
  0
LINE
  5
E4
100
AcDbEntity
  8
0
  6
CONTINUOUS
 62
             3
100
AcDbLine
 10
-297.36915664700001
 20
-175.79871673599999
 11
-327.86915664700001
 21
-175.79871673599999
  0
LINE
  5
E3
100
AcDbEntity
  8
0
  6
CONTINUOUS
 62
             3
100
AcDbLine
 10
-327.86915664700001
 20
-175.79871673599999
 11
-329.86915664700001
 21
-174.687576675
  0
LINE
  5
E2
100
AcDbEntity
  8
0
  6
CONTINUOUS
 62
             3
100
AcDbLine
 10
-329.86915664700001
 20
-174.687576675
 11
-329.86915664700001
 21
-181.03326263400001
  0
LINE
  5
E1
100
AcDbEntity
  8
0
  6
CONTINUOUS
 62
             3
100
AcDbLine
 10
-297.36915664700001
 20
-166.78671951300001
 11
-297.36915664700001
 21
-161.909461212
  0
LINE
  5
E0
100
AcDbEntity
  8
0
  6
CONTINUOUS
 62
             3
100
AcDbLine
 10
-329.86915664700001
 20
-166.39653778100001
 11
-327.86915664700001
 21
-166.78671951300001
  0
LINE
  5
DF
100
AcDbEntity
  8
0
  6
CONTINUOUS
 62
             3
100
AcDbLine
 10
-327.86915664700001
 20
-166.78671951300001
 11
-297.36915664700001
 21
-166.78671951300001
  0
LINE
  5
DE
100
AcDbEntity
  8
0
  6
CONTINUOUS
 62
             3
100
AcDbLine
 10
-327.86915664700001
 20
-166.78671951300001
 11
-327.86915664700001
 21
-175.79871673599999
  0
LINE
  5
DD
100
AcDbEntity
  8
0
  6
CONTINUOUS
 62
             3
100
AcDbLine
 10
-297.36915664700001
 20
-186.909461212
 11
-297.36915664700001
 21
-186.42909469599999
  0
LINE
  5
DC
100
AcDbEntity
  8
0
  6
CONTINUOUS
 62
             3
100
AcDbLine
 10
-297.36915664700001
 20
-186.42909469599999
 11
-297.36915664700001
 21
-186.909461212
  0
LINE
  5
DB
100
AcDbEntity
  8
0
  6
CONTINUOUS
 62
             3
100
AcDbLine
 10
-327.86915664700001
 20
-137.38983078000001
 11
-297.36915664700001
 21
-137.38983078000001
  0
LINE
  5
DA
100
AcDbEntity
  8
0
  6
CONTINUOUS
 62
             3
100
AcDbLine
 10
-297.36915664700001
 20
-137.38983078000001
 11
-297.36915664700001
 21
-136.909462357
  0
LINE
  5
D9
100
AcDbEntity
  8
0
  6
CONTINUOUS
 62
             3
100
AcDbLine
 10
-329.86915664700001
 20
-142.78566017200001
 11
-327.86915664700001
 21
-141.12272186300001
  0
LINE
  5
D8
100
AcDbEntity
  8
0
  6
CONTINUOUS
 62
             3
100
AcDbLine
 10
-297.36915664700001
 20
-141.12272186300001
 11
-297.36915664700001
 21
-142.78566017200001
  0
LINE
  5
D7
100
AcDbEntity
  8
0
  6
CONTINUOUS
 62
             3
100
AcDbLine
 10
-297.36915664700001
 20
-142.78566017200001
 11
-297.36915664700001
 21
-148.02020645100001
  0
LINE
  5
D6
100
AcDbEntity
  8
0
  6
CONTINUOUS
 62
             3
100
AcDbLine
 10
-297.36915664700001
 20
-148.02020645100001
 11
-327.86915664700001
 21
-148.02020645100001
  0
LINE
  5
D5
100
AcDbEntity
  8
0
  6
CONTINUOUS
 62
             3
100
AcDbLine
 10
-327.86915664700001
 20
-148.02020645100001
 11
-329.86915664700001
 21
-149.131346893
  0
LINE
  5
D4
100
AcDbEntity
  8
0
  6
CONTINUOUS
 62
             3
100
AcDbLine
 10
-329.86915664700001
 20
-149.131346893
 11
-329.86915664700001
 21
-142.78566017200001
  0
LINE
  5
D3
100
AcDbEntity
  8
0
  6
CONTINUOUS
 62
             3
100
AcDbLine
 10
-297.36915664700001
 20
-157.032205963
 11
-297.36915664700001
 21
-161.909462357
  0
LINE
  5
D2
100
AcDbEntity
  8
0
  6
CONTINUOUS
 62
             3
100
AcDbLine
 10
-329.86915664700001
 20
-157.42238540599999
 11
-327.86915664700001
 21
-157.032205963
  0
LINE
  5
D1
100
AcDbEntity
  8
0
  6
CONTINUOUS
 62
             3
100
AcDbLine
 10
-327.86915664700001
 20
-157.032205963
 11
-297.36915664700001
 21
-157.032205963
  0
LINE
  5
D0
100
AcDbEntity
  8
0
  6
CONTINUOUS
 62
             3
100
AcDbLine
 10
-327.86915664700001
 20
-157.032205963
 11
-327.86915664700001
 21
-148.02020645100001
  0
LINE
  5
CF
100
AcDbEntity
  8
0
  6
CONTINUOUS
 62
             3
100
AcDbLine
 10
-297.36915664700001
 20
-136.909462357
 11
-297.36915664700001
 21
-137.38983078000001
  0
LINE
  5
CE
100
AcDbEntity
  8
0
  6
CONTINUOUS
 62
             3
100
AcDbLine
 10
-297.36915664700001
 20
-137.38983078000001
 11
-297.36915664700001
 21
-136.909462357
  0
LINE
  5
CD
100
AcDbEntity
  8
0
  6
CONTINUOUS
 62
             3
100
AcDbLine
 10
-297.36915664700001
 20
-181.03326263400001
 11
-297.36915664700001
 21
-182.69620132399999
  0
LINE
  5
CC
100
AcDbEntity
  8
0
  6
CONTINUOUS
 62
             3
100
AcDbLine
 10
-329.86915664700001
 20
-181.03326263400001
 11
-302.36915664700001
 21
-181.03326263400001
  0
LINE
  5
CB
100
AcDbEntity
  8
0
  6
CONTINUOUS
 62
             3
100
AcDbLine
 10
-302.36915664700001
 20
-142.78566017200001
 11
-329.86915664700001
 21
-142.78566017200001
  0
LINE
  5
CA
100
AcDbEntity
  8
0
  6
CONTINUOUS
 62
             3
100
AcDbLine
 10
-329.86915664700001
 20
-166.39653778100001
 11
-301.11915664700001
 21
-166.38536491400001
  0
LINE
  5
C9
100
AcDbEntity
  8
0
  6
CONTINUOUS
 62
             3
100
AcDbLine
 10
-329.86915664700001
 20
-157.42238540599999
 11
-301.11915664700001
 21
-157.43355865500001
  0
LINE
  5
C8
100
AcDbEntity
  8
0
  6
CONTINUOUS
 62
             3
100
AcDbLine
 10
-329.86915664700001
 20
-142.78566017200001
 11
-329.86915664700001
 21
-149.131346893
  0
LINE
  5
C7
100
AcDbEntity
  8
0
  6
CONTINUOUS
 62
             3
100
AcDbLine
 10
-329.86915664700001
 20
-174.687576675
 11
-329.86915664700001
 21
-181.03326263400001
  0
LINE
  5
C6
100
AcDbEntity
  8
0
  6
CONTINUOUS
 62
             3
100
AcDbLine
 10
-329.86915664700001
 20
-157.42238540599999
 11
-329.86915664700001
 21
-158.93003311199999
  0
LINE
  5
C5
100
AcDbEntity
  8
0
  6
CONTINUOUS
 62
             3
100
AcDbLine
 10
-329.86915664700001
 20
-158.93003311199999
 11
-326.86915664700001
 21
-158.93003311199999
  0
LINE
  5
C4
100
AcDbEntity
  8
0
  6
CONTINUOUS
 62
             3
100
AcDbLine
 10
-326.86915664700001
 20
-158.93003311199999
 11
-326.86915664700001
 21
-164.93257370000001
  0
LINE
  5
C3
100
AcDbEntity
  8
0
  6
CONTINUOUS
 62
             3
100
AcDbLine
 10
-326.86915664700001
 20
-164.93257370000001
 11
-330.36915664700001
 21
-164.93257370000001
  0
LINE
  5
C2
100
AcDbEntity
  8
0
  6
CONTINUOUS
 62
             3
100
AcDbLine
 10
-329.86915664700001
 20
-158.93003311199999
 11
-330.36915664700001
 21
-158.93003311199999
  0
LINE
  5
C1
100
AcDbEntity
  8
0
  6
CONTINUOUS
 62
             3
100
AcDbLine
 10
-330.36915664700001
 20
-158.93003311199999
 11
-331.36915664700001
 21
-158.93003311199999
  0
LINE
  5
C0
100
AcDbEntity
  8
0
  6
CONTINUOUS
 62
             3
100
AcDbLine
 10
-330.36915664700001
 20
-164.93257370000001
 11
-331.36915664700001
 21
-164.909461212
  0
LINE
  5
BF
100
AcDbEntity
  8
0
  6
CONTINUOUS
 62
             3
100
AcDbLine
 10
-329.86915664700001
 20
-166.39653778100001
 11
-329.86915664700001
 21
-164.93257370000001
  0
LINE
  5
BE
100
AcDbEntity
  8
0
  6
CONTINUOUS
 62
             3
100
AcDbLine
 10
-330.36915664700001
 20
-139.409462357
 11
-330.36915664700001
 21
-158.93003311199999
  0
LINE
  5
BD
100
AcDbEntity
  8
0
  6
CONTINUOUS
 62
             3
100
AcDbLine
 10
-330.36915664700001
 20
-164.93257370000001
 11
-330.36915664700001
 21
-184.409461212
  0
LINE
  5
BC
100
AcDbEntity
  8
0
  6
CONTINUOUS
 62
             3
100
AcDbLine
 10
-327.86915664700001
 20
-182.69620132399999
 11
-327.86915664700001
 21
-186.42909469599999
  0
LINE
  5
BB
100
AcDbEntity
  8
0
  6
CONTINUOUS
 62
             3
100
AcDbLine
 10
-330.36915664700001
 20
-184.409461212
 11
-329.86915664700001
 21
-184.909461212
  0
LINE
  5
BA
100
AcDbEntity
  8
0
  6
CONTINUOUS
 62
             3
100
AcDbLine
 10
-262.36915664700001
 20
-161.909461212
 11
-262.36915664700001
 21
-201.909461212
  0
LINE
  5
B9
100
AcDbEntity
  8
0
  6
CONTINUOUS
 62
             3
100
AcDbLine
 10
-262.36915664700001
 20
-201.909461212
 11
-246.469155884
 21
-229.909461212
  0
LINE
  5
B8
100
AcDbEntity
  8
0
  6
CONTINUOUS
 62
             3
100
AcDbLine
 10
-246.469155884
 20
-229.909461212
 11
-242.469155884
 21
-229.909461212
  0
LINE
  5
B7
100
AcDbEntity
  8
0
  6
CONTINUOUS
 62
             3
100
AcDbLine
 10
-242.469155884
 20
-218.909461212
 11
-246.469155884
 21
-218.909461212
  0
LINE
  5
B6
100
AcDbEntity
  8
0
  6
CONTINUOUS
 62
             3
100
AcDbLine
 10
-246.469155884
 20
-218.909461212
 11
-246.469155884
 21
-229.909461212
  0
LINE
  5
B5
100
AcDbEntity
  8
0
  6
CONTINUOUS
 62
             3
100
AcDbLine
 10
-262.36915664700001
 20
-153.909461212
 11
-262.36915664700001
 21
-161.909461212
  0
LINE
  5
B4
100
AcDbEntity
  8
0
  6
CONTINUOUS
 62
             3
100
AcDbLine
 10
-262.36915664700001
 20
-153.909461212
 11
-262.36915664700001
 21
-86.9094612122
  0
LINE
  5
B3
100
AcDbEntity
  8
0
  6
CONTINUOUS
 62
             3
100
AcDbLine
 10
-262.36915664700001
 20
-86.9094612122
 11
-242.469155884
 21
-86.9094612122
  0
LINE
  5
B2
100
AcDbEntity
  8
0
  6
CONTINUOUS
 62
             3
100
AcDbLine
 10
-242.469155884
 20
-229.909461212
 11
-242.469155884
 21
-225.639460754
  0
LINE
  5
B1
100
AcDbEntity
  8
0
  6
CONTINUOUS
 62
             3
100
AcDbLine
 10
-242.469155884
 20
-169.909461212
 11
-242.469155884
 21
-179.43946075400001
  0
LINE
  5
B0
100
AcDbEntity
  8
0
  6
CONTINUOUS
 62
             3
100
AcDbLine
 10
-242.469155884
 20
-179.30946006799999
 11
-221.16915664699999
 21
-179.30946006799999
  0
LINE
  5
AF
100
AcDbEntity
  8
0
  6
CONTINUOUS
 62
             3
100
AcDbLine
 10
-242.469155884
 20
-225.509462738
 11
-221.16915664699999
 21
-225.509462738
  0
LINE
  5
AE
100
AcDbEntity
  8
0
  6
CONTINUOUS
 62
             3
100
AcDbLine
 10
-160.06915741
 20
-133.509462738
 11
-148.719155884
 21
-133.509462738
  0
LINE
  5
AD
100
AcDbEntity
  8
0
  6
CONTINUOUS
 62
             3
100
AcDbLine
 10
-160.06915741
 20
-190.30946006799999
 11
-148.719155884
 21
-190.30946006799999
  0
LINE
  5
AC
100
AcDbEntity
  8
0
  6
CONTINUOUS
 62
             3
100
AcDbLine
 10
-221.16915664699999
 20
-161.909461212
 11
-221.16915664699999
 21
-121.909461212
  0
LINE
  5
AB
100
AcDbEntity
  8
0
  6
CONTINUOUS
 62
             3
100
AcDbLine
 10
-221.16915664699999
 20
-121.909461212
 11
-205.26915626499999
 21
-93.9094612122
  0
LINE
  5
AA
100
AcDbEntity
  8
0
  6
CONTINUOUS
 62
             3
100
AcDbLine
 10
-221.16915664699999
 20
-169.909461212
 11
-221.16915664699999
 21
-161.909461212
  0
LINE
  5
A9
100
AcDbEntity
  8
0
  6
CONTINUOUS
 62
             3
100
AcDbLine
 10
-201.26915626499999
 20
-93.9094612122
 11
-201.26915626499999
 21
-153.909461212
  0
LINE
  5
A8
100
AcDbEntity
  8
0
  6
CONTINUOUS
 62
             3
100
AcDbLine
 10
-201.26915626499999
 20
-161.909461212
 11
-201.26915626499999
 21
-201.909461212
  0
LINE
  5
A7
100
AcDbEntity
  8
0
  6
CONTINUOUS
 62
             3
100
AcDbLine
 10
-201.26915626499999
 20
-201.909461212
 11
-217.16915664699999
 21
-229.909461212
  0
LINE
  5
A6
100
AcDbEntity
  8
0
  6
CONTINUOUS
 62
             3
100
AcDbLine
 10
-217.16915664699999
 20
-229.909461212
 11
-221.16915664699999
 21
-229.909461212
  0
LINE
  5
A5
100
AcDbEntity
  8
0
  6
CONTINUOUS
 62
             3
100
AcDbLine
 10
-221.16915664699999
 20
-218.909461212
 11
-217.16915664699999
 21
-218.909461212
  0
LINE
  5
A4
100
AcDbEntity
  8
0
  6
CONTINUOUS
 62
             3
100
AcDbLine
 10
-217.16915664699999
 20
-218.909461212
 11
-217.16915664699999
 21
-229.909461212
  0
LINE
  5
A3
100
AcDbEntity
  8
0
  6
CONTINUOUS
 62
             3
100
AcDbLine
 10
-201.26915626499999
 20
-153.909461212
 11
-201.26915626499999
 21
-161.909461212
  0
LINE
  5
A2
100
AcDbEntity
  8
0
  6
CONTINUOUS
 62
             3
100
AcDbLine
 10
-221.16915664699999
 20
-229.909461212
 11
-221.16915664699999
 21
-169.909461212
  0
LINE
  5
A1
100
AcDbEntity
  8
0
  6
CONTINUOUS
 62
             3
100
AcDbLine
 10
-137.36915664700001
 20
-161.909461212
 11
-137.36915664700001
 21
-121.909461212
  0
LINE
  5
A0
100
AcDbEntity
  8
0
  6
CONTINUOUS
 62
             3
100
AcDbLine
 10
-137.36915664700001
 20
-121.909461212
 11
-121.469155884
 21
-93.9094612122
  0
LINE
  5
9F
100
AcDbEntity
  8
0
  6
CONTINUOUS
 62
             3
100
AcDbLine
 10
-121.469155884
 20
-93.9094612122
 11
-117.469155884
 21
-93.9094612122
  0
LINE
  5
9E
100
AcDbEntity
  8
0
  6
CONTINUOUS
 62
             3
100
AcDbLine
 10
-117.469155884
 20
-104.909461212
 11
-121.469155884
 21
-104.909461212
  0
LINE
  5
9D
100
AcDbEntity
  8
0
  6
CONTINUOUS
 62
             3
100
AcDbLine
 10
-121.469155884
 20
-104.909461212
 11
-121.469155884
 21
-93.9094612122
  0
LINE
  5
9C
100
AcDbEntity
  8
0
  6
CONTINUOUS
 62
             3
100
AcDbLine
 10
-137.36915664700001
 20
-169.909461212
 11
-137.36915664700001
 21
-161.909461212
  0
LINE
  5
9B
100
AcDbEntity
  8
0
  6
CONTINUOUS
 62
             3
100
AcDbLine
 10
-117.469155884
 20
-93.9094612122
 11
-117.469155884
 21
-153.909461212
  0
LINE
  5
9A
100
AcDbEntity
  8
0
  6
CONTINUOUS
 62
             3
100
AcDbLine
 10
-137.36915664700001
 20
-169.909461212
 11
-137.36915664700001
 21
-236.909461212
  0
LINE
  5
99
100
AcDbEntity
  8
0
  6
CONTINUOUS
 62
             3
100
AcDbLine
 10
-137.36915664700001
 20
-236.909461212
 11
-117.469155884
 21
-236.909461212
  0
LINE
  5
98
100
AcDbEntity
  8
0
  6
CONTINUOUS
 62
             3
100
AcDbLine
 10
-117.469155884
 20
-236.909461212
 11
-117.469155884
 21
-153.909461212
  0
LINE
  5
97
100
AcDbEntity
  8
0
  6
CONTINUOUS
 62
             3
100
AcDbLine
 10
-76.2691562653
 20
-161.909461212
 11
-76.2691562653
 21
-121.909461212
  0
LINE
  5
96
100
AcDbEntity
  8
0
  6
CONTINUOUS
 62
             3
100
AcDbLine
 10
-76.2691562653
 20
-121.909461212
 11
-92.1691566467
 21
-93.9094612122
  0
LINE
  5
95
100
AcDbEntity
  8
0
  6
CONTINUOUS
 62
             3
100
AcDbLine
 10
-92.1691566467
 20
-93.9094612122
 11
-96.1691566467
 21
-93.9094612122
  0
LINE
  5
94
100
AcDbEntity
  8
0
  6
CONTINUOUS
 62
             3
100
AcDbLine
 10
-96.1691566467
 20
-104.909461212
 11
-92.1691566467
 21
-104.909461212
  0
LINE
  5
93
100
AcDbEntity
  8
0
  6
CONTINUOUS
 62
             3
100
AcDbLine
 10
-92.1691566467
 20
-104.909461212
 11
-92.1691566467
 21
-93.9094612122
  0
LINE
  5
92
100
AcDbEntity
  8
0
  6
CONTINUOUS
 62
             3
100
AcDbLine
 10
-76.2691562653
 20
-169.909461212
 11
-76.2691562653
 21
-161.909461212
  0
LINE
  5
91
100
AcDbEntity
  8
0
  6
CONTINUOUS
 62
             3
100
AcDbLine
 10
-96.1691566467
 20
-93.9094612122
 11
-96.1691566467
 21
-153.909461212
  0
LINE
  5
90
100
AcDbEntity
  8
0
  6
CONTINUOUS
 62
             3
100
AcDbLine
 10
-96.1691566467
 20
-161.909461212
 11
-96.1691566467
 21
-201.909461212
  0
LINE
  5
8F
100
AcDbEntity
  8
0
  6
CONTINUOUS
 62
             3
100
AcDbLine
 10
-96.1691566467
 20
-201.909461212
 11
-80.2691562653
 21
-229.909461212
  0
LINE
  5
8E
100
AcDbEntity
  8
0
  6
CONTINUOUS
 62
             3
100
AcDbLine
 10
-80.2691562653
 20
-229.909461212
 11
-76.2691562653
 21
-229.909461212
  0
LINE
  5
8D
100
AcDbEntity
  8
0
  6
CONTINUOUS
 62
             3
100
AcDbLine
 10
-76.2691562653
 20
-218.909461212
 11
-80.2691562653
 21
-218.909461212
  0
LINE
  5
8C
100
AcDbEntity
  8
0
  6
CONTINUOUS
 62
             3
100
AcDbLine
 10
-80.2691562653
 20
-218.909461212
 11
-80.2691562653
 21
-229.909461212
  0
LINE
  5
8B
100
AcDbEntity
  8
0
  6
CONTINUOUS
 62
             3
100
AcDbLine
 10
-96.1691566467
 20
-153.909461212
 11
-96.1691566467
 21
-161.909461212
  0
LINE
  5
8A
100
AcDbEntity
  8
0
  6
CONTINUOUS
 62
             3
100
AcDbLine
 10
-76.2691562653
 20
-229.909461212
 11
-76.2691562653
 21
-169.909461212
  0
LINE
  5
89
100
AcDbEntity
  8
0
  6
CONTINUOUS
 62
             3
100
AcDbLine
 10
-35.0691574097
 20
-161.909461212
 11
-35.0691574097
 21
-201.909461212
  0
LINE
  5
88
100
AcDbEntity
  8
0
  6
CONTINUOUS
 62
             3
100
AcDbLine
 10
-35.0691574097
 20
-201.909461212
 11
-50.9691558838
 21
-229.909461212
  0
LINE
  5
87
100
AcDbEntity
  8
0
  6
CONTINUOUS
 62
             3
100
AcDbLine
 10
-50.9691558838
 20
-229.909461212
 11
-54.9691558838
 21
-229.909461212
  0
LINE
  5
86
100
AcDbEntity
  8
0
  6
CONTINUOUS
 62
             3
100
AcDbLine
 10
-54.9691558838
 20
-218.909461212
 11
-50.9691558838
 21
-218.909461212
  0
LINE
  5
85
100
AcDbEntity
  8
0
  6
CONTINUOUS
 62
             3
100
AcDbLine
 10
-50.9691558838
 20
-218.909461212
 11
-50.9691558838
 21
-229.909461212
  0
LINE
  5
84
100
AcDbEntity
  8
0
  6
CONTINUOUS
 62
             3
100
AcDbLine
 10
-35.0691574097
 20
-153.909461212
 11
-35.0691574097
 21
-161.909461212
  0
LINE
  5
83
100
AcDbEntity
  8
0
  6
CONTINUOUS
 62
             3
100
AcDbLine
 10
-35.0691574097
 20
-153.909461212
 11
-35.0691574097
 21
-86.9094612122
  0
LINE
  5
82
100
AcDbEntity
  8
0
  6
CONTINUOUS
 62
             3
100
AcDbLine
 10
-35.0691574097
 20
-86.9094612122
 11
-54.9691558838
 21
-86.9094612122
  0
LINE
  5
81
100
AcDbEntity
  8
0
  6
CONTINUOUS
 62
             3
100
AcDbLine
 10
-54.9691558838
 20
-86.9094612122
 11
-54.9691558838
 21
-169.909461212
  0
LINE
  5
80
100
AcDbEntity
  8
0
  6
CONTINUOUS
 62
             3
100
AcDbLine
 10
-54.9691558838
 20
-225.639460754
 11
-54.9691558838
 21
-179.43946075400001
  0
LINE
  5
7F
100
AcDbEntity
  8
0
  6
CONTINUOUS
 62
             3
100
AcDbLine
 10
-54.9691558838
 20
-229.909461212
 11
-54.9691558838
 21
-225.639460754
  0
LINE
  5
7E
100
AcDbEntity
  8
0
  6
CONTINUOUS
 62
             3
100
AcDbLine
 10
-54.9691558838
 20
-169.909461212
 11
-54.9691558838
 21
-179.43946075400001
  0
LINE
  5
7D
100
AcDbEntity
  8
0
  6
CONTINUOUS
 62
             3
100
AcDbLine
 10
-96.1691566467
 20
-98.3094600677
 11
-97.1691566467
 21
-98.3094600677
  0
LINE
  5
7C
100
AcDbEntity
  8
0
  6
CONTINUOUS
 62
             3
100
AcDbLine
 10
-116.469155884
 20
-98.3094600677
 11
-117.469155884
 21
-98.3094600677
  0
LINE
  5
7B
100
AcDbEntity
  8
0
  6
CONTINUOUS
 62
             3
100
AcDbLine
 10
-96.1691566467
 20
-144.509462738
 11
-97.1691566467
 21
-144.509462738
  0
LINE
  5
7A
100
AcDbEntity
  8
0
  6
CONTINUOUS
 62
             3
100
AcDbLine
 10
-116.469155884
 20
-144.509462738
 11
-117.469155884
 21
-144.509462738
  0
LINE
  5
79
100
AcDbEntity
  8
0
  6
CONTINUOUS
 62
             3
100
AcDbLine
 10
-137.36915664700001
 20
-133.509462738
 11
-148.719155884
 21
-133.509462738
  0
LINE
  5
78
100
AcDbEntity
  8
0
  6
CONTINUOUS
 62
             3
100
AcDbLine
 10
-137.36915664700001
 20
-190.30946006799999
 11
-148.719155884
 21
-190.30946006799999
  0
LINE
  5
77
100
AcDbEntity
  8
0
  6
CONTINUOUS
 62
             3
100
AcDbLine
 10
-35.0691574097
 20
-133.509462738
 11
-2.56915740967
 21
-133.509462738
  0
LINE
  5
76
100
AcDbEntity
  8
0
  6
CONTINUOUS
 62
             3
100
AcDbLine
 10
-2.56915740967
 20
-133.509462738
 11
-0.069157409668
 21
-136.009462738
  0
LINE
  5
75
100
AcDbEntity
  8
0
  6
CONTINUOUS
 62
             3
100
AcDbLine
 10
-0.069157409668
 20
-136.009462738
 11
-0.069157409668
 21
-146.909461212
  0
LINE
  5
74
100
AcDbEntity
  8
0
  6
CONTINUOUS
 62
             3
100
AcDbLine
 10
-0.069157409668
 20
-146.909461212
 11
2.43084259033
 21
-146.909461212
  0
LINE
  5
73
100
AcDbEntity
  8
0
  6
CONTINUOUS
 62
             3
100
AcDbLine
 10
2.43084259033
 20
-146.909461212
 11
3.93084259033
 21
-148.409461212
  0
LINE
  5
72
100
AcDbEntity
  8
0
  6
CONTINUOUS
 62
             3
100
AcDbLine
 10
3.93084259033
 20
-148.409461212
 11
3.93084259033
 21
-175.409461212
  0
LINE
  5
71
100
AcDbEntity
  8
0
  6
CONTINUOUS
 62
             3
100
AcDbLine
 10
3.93084259033
 20
-175.409461212
 11
2.43084259033
 21
-176.909461212
  0
LINE
  5
70
100
AcDbEntity
  8
0
  6
CONTINUOUS
 62
             3
100
AcDbLine
 10
2.43084259033
 20
-176.909461212
 11
-0.069157409668
 21
-176.909461212
  0
LINE
  5
6F
100
AcDbEntity
  8
0
  6
CONTINUOUS
 62
             3
100
AcDbLine
 10
-0.069157409668
 20
-176.909461212
 11
-0.069157409668
 21
-187.80946006799999
  0
LINE
  5
6E
100
AcDbEntity
  8
0
  6
CONTINUOUS
 62
             3
100
AcDbLine
 10
-0.069157409668
 20
-187.80946006799999
 11
-2.56915740967
 21
-190.30946006799999
  0
LINE
  5
6D
100
AcDbEntity
  8
0
  6
CONTINUOUS
 62
             3
100
AcDbLine
 10
-2.56915740967
 20
-190.30946006799999
 11
-35.0691574097
 21
-190.30946006799999
  0
LINE
  5
6C
100
AcDbEntity
  8
0
  6
CONTINUOUS
 62
             3
100
AcDbLine
 10
-14.0691574097
 20
-151.909461212
 11
-14.0691574097
 21
-153.909461212
  0
LINE
  5
6B
100
AcDbEntity
  8
0
  6
CONTINUOUS
 62
             3
100
AcDbLine
 10
-14.0691574097
 20
-153.909461212
 11
-28.0691574097
 21
-153.909461212
  0
LINE
  5
6A
100
AcDbEntity
  8
0
  6
CONTINUOUS
 62
             3
100
AcDbLine
 10
-28.0691574097
 20
-153.909461212
 11
-28.0691574097
 21
-169.909461212
  0
LINE
  5
69
100
AcDbEntity
  8
0
  6
CONTINUOUS
 62
             3
100
AcDbLine
 10
-28.0691574097
 20
-169.909461212
 11
-14.0691574097
 21
-169.909461212
  0
LINE
  5
68
100
AcDbEntity
  8
0
  6
CONTINUOUS
 62
             3
100
AcDbLine
 10
-14.0691574097
 20
-169.909461212
 11
-14.0691574097
 21
-171.909461212
  0
LINE
  5
67
100
AcDbEntity
  8
0
  6
CONTINUOUS
 62
             3
100
AcDbLine
 10
-28.0691574097
 20
-153.909461212
 11
-32.6879581451
 21
-161.909461212
  0
LINE
  5
66
100
AcDbEntity
  8
0
  6
CONTINUOUS
 62
             3
100
AcDbLine
 10
-32.6879581451
 20
-161.909461212
 11
-28.0691574097
 21
-169.909461212
  0
LINE
  5
65
100
AcDbEntity
  8
0
  6
CONTINUOUS
 62
             3
100
AcDbLine
 10
-14.0691574097
 20
-151.909461212
 11
3.93084259033
 21
-151.909461212
  0
LINE
  5
64
100
AcDbEntity
  8
0
  6
CONTINUOUS
 62
             3
100
AcDbLine
 10
-14.0691574097
 20
-171.909461212
 11
3.93084259033
 21
-171.909461212
  0
LINE
  5
63
100
AcDbEntity
  8
0
  6
CONTINUOUS
 62
             3
100
AcDbLine
 10
-262.36915664700001
 20
-190.30946006799999
 11
-287.86915664700001
 21
-190.30946006799999
  0
LINE
  5
62
100
AcDbEntity
  8
0
  6
CONTINUOUS
 62
             3
100
AcDbLine
 10
-262.36915664700001
 20
-133.509462738
 11
-287.86915664700001
 21
-133.509462738
  0
LINE
  5
61
100
AcDbEntity
  8
0
  6
CONTINUOUS
 62
             3
100
AcDbLine
 10
-287.86915664700001
 20
-133.509462738
 11
-287.86915664700001
 21
-135.40988845800001
  0
LINE
  5
60
100
AcDbEntity
  8
0
  6
CONTINUOUS
 62
             3
100
AcDbLine
 10
-289.36915664700001
 20
-136.90977325399999
 11
-297.36915664700001
 21
-136.909462357
  0
LINE
  5
5F
100
AcDbEntity
  8
0
  6
CONTINUOUS
 62
             3
100
AcDbLine
 10
-287.86915664700001
 20
-190.30946006799999
 11
-287.86915664700001
 21
-188.40945930500001
  0
LINE
  5
5E
100
AcDbEntity
  8
0
  6
CONTINUOUS
 62
             3
100
AcDbLine
 10
-287.86915664700001
 20
-186.90945930500001
 11
-287.86915664700001
 21
-186.909461212
  0
LINE
  5
5D
100
AcDbEntity
  8
0
  6
CONTINUOUS
 62
             3
100
AcDbLine
 10
-287.86915664700001
 20
-135.40988845800001
 11
-287.86915664700001
 21
-188.40945930500001
  0
LINE
  5
5C
100
AcDbEntity
  8
0
  6
CONTINUOUS
 62
             3
100
AcDbLine
 10
-289.36915664700001
 20
-188.80946006799999
 11
-289.36915664700001
 21
-135.009462738
  0
LINE
  5
5B
100
AcDbEntity
  8
0
  6
CONTINUOUS
 62
             3
100
AcDbLine
 10
-289.36915664700001
 20
-135.009462738
 11
-287.86915664700001
 21
-133.509462738
  0
LINE
  5
5A
100
AcDbEntity
  8
0
  6
CONTINUOUS
 62
             3
100
AcDbLine
 10
-289.36915664700001
 20
-188.80946006799999
 11
-287.86915664700001
 21
-190.30946006799999
  0
LINE
  5
59
100
AcDbEntity
  8
0
  6
CONTINUOUS
 62
             3
100
AcDbLine
 10
-327.86495361300001
 20
-141.135170364
 11
-297.36915664700001
 21
-141.12272186300001
  0
LINE
  5
58
100
AcDbEntity
  8
0
  6
CONTINUOUS
 62
             3
100
AcDbLine
 10
-205.26915626499999
 20
-104.909461212
 11
-205.26915626499999
 21
-93.9094612122
  0
LINE
  5
57
100
AcDbEntity
  8
0
  6
CONTINUOUS
 62
             3
100
AcDbLine
 10
-205.26915626499999
 20
-93.9094612122
 11
-201.26915626499999
 21
-93.9094612122
  0
LINE
  5
56
100
AcDbEntity
  8
0
  6
CONTINUOUS
 62
             3
100
AcDbLine
 10
-175.969155884
 20
-104.909461212
 11
-175.969155884
 21
-93.9094612122
  0
LINE
  5
55
100
AcDbEntity
  8
0
  6
CONTINUOUS
 62
             3
100
AcDbLine
 10
-179.969155884
 20
-104.909461212
 11
-175.969155884
 21
-104.909461212
  0
LINE
  5
54
100
AcDbEntity
  8
0
  6
CONTINUOUS
 62
             3
100
AcDbLine
 10
-201.26915626499999
 20
-104.909461212
 11
-205.26915626499999
 21
-104.909461212
  0
LINE
  5
53
100
AcDbEntity
  8
0
  6
CONTINUOUS
 62
             3
100
AcDbLine
 10
-175.969155884
 20
-93.9094612122
 11
-179.969155884
 21
-93.9094612122
  0
LINE
  5
52
100
AcDbEntity
  8
0
  6
CONTINUOUS
 62
             3
100
AcDbLine
 10
-242.469155884
 20
-229.909461212
 11
-242.469155884
 21
-86.9094612122
  0
LINE
  5
51
100
AcDbEntity
  8
0
  6
CONTINUOUS
 62
             3
100
AcDbLine
 10
-201.26915626499999
 20
-98.3094600677
 11
-200.36801872300001
 21
-98.3094600677
  0
LINE
  5
50
100
AcDbEntity
  8
0
  6
CONTINUOUS
 62
             3
100
AcDbLine
 10
-181.067947769
 20
-98.3094600677
 11
-179.969155884
 21
-98.3094600677
  0
LINE
  5
4F
100
AcDbEntity
  8
0
  6
CONTINUOUS
 62
             3
100
AcDbLine
 10
-181.067947769
 20
-144.509462738
 11
-179.969155884
 21
-144.509462738
  0
LINE
  5
4E
100
AcDbEntity
  8
0
  6
CONTINUOUS
 62
             3
100
AcDbLine
 10
-201.26915626499999
 20
-144.509462738
 11
-200.36801872300001
 21
-144.509462738
  0
LINE
  5
4D
100
AcDbEntity
  8
0
  6
DOT_CENTER
 62
             2
100
AcDbLine
 10
-134.80805549600001
 20
-121.40946044899999
 11
-79.0977169037
 21
-121.40946044899999
  0
LINE
  5
4C
100
AcDbEntity
  8
0
  6
DOT_CENTER
 62
             2
100
AcDbLine
 10
-162.66322479199999
 20
-121.40946044899999
 11
-218.61087265
 21
-121.40946044899999
  0
LINE
  5
4B
100
AcDbEntity
  8
0
  6
DOT_CENTER
 62
             2
100
AcDbLine
 10
-366.42655686372098
 20
-161.909674072
 11
14.9302295685
 21
-161.909674072
  0
LINE
  5
4A
100
AcDbEntity
  8
0
  6
CONTINUOUS
 62
             3
100
AcDbLine
 10
-5.81844177246
 20
-133.509462738
 11
-12.3842998505
 21
-135.90854949999999
  0
LINE
  5
49
100
AcDbEntity
  8
0
  6
CONTINUOUS
 62
             3
100
AcDbLine
 10
-12.3842998505
 20
-135.90854949999999
 11
-19.0814750671
 21
-137.74698982199999
  0
LINE
  5
48
100
AcDbEntity
  8
0
  6
CONTINUOUS
 62
             3
100
AcDbLine
 10
-19.0814750671
 20
-137.74698982199999
 11
-22.6270385742
 21
-140.242015839
  0
LINE
  5
47
100
AcDbEntity
  8
0
  6
CONTINUOUS
 62
             3
100
AcDbLine
 10
-22.6270385742
 20
-140.242015839
 11
-27.091822052
 21
-144.44416503900001
  0
LINE
  5
46
100
AcDbEntity
  8
0
  6
CONTINUOUS
 62
             3
100
AcDbLine
 10
-27.091822052
 20
-144.44416503900001
 11
-31.0313365936
 21
-147.46445961000001
  0
LINE
  5
45
100
AcDbEntity
  8
0
  6
CONTINUOUS
 62
             3
100
AcDbLine
 10
-31.0313365936
 20
-147.46445961000001
 11
-32.4758255005
 21
-153.636366272
  0
LINE
  5
44
100
AcDbEntity
  8
0
  6
CONTINUOUS
 62
             3
100
AcDbLine
 10
-32.4758255005
 20
-153.636366272
 11
-33.9203144073
 21
-159.808272934
  0
LINE
  5
43
100
AcDbEntity
  8
0
  6
CONTINUOUS
 62
             3
100
AcDbLine
 10
-33.9203144073
 20
-159.808272934
 11
-33.2637283325
 21
-166.505448151
  0
LINE
  5
42
100
AcDbEntity
  8
0
  6
CONTINUOUS
 62
             3
100
AcDbLine
 10
-33.2637283325
 20
-166.505448151
 11
-32.7384597778
 21
-173.202623367
  0
LINE
  5
41
100
AcDbEntity
  8
0
  6
CONTINUOUS
 62
             3
100
AcDbLine
 10
-32.7384597778
 20
-173.202623367
 11
-28.9302619934
 21
-177.53608970600001
  0
LINE
  5
40
100
AcDbEntity
  8
0
  6
CONTINUOUS
 62
             3
100
AcDbLine
 10
-28.9302619934
 20
-177.53608970600001
 11
-20.6572811127
 21
-181.081652832
  0
LINE
  5
3F
100
AcDbEntity
  8
0
  6
CONTINUOUS
 62
             3
100
AcDbLine
 10
-20.6572811127
 20
-181.081652832
 11
-15.0106430054
 21
-184.101947403
  0
LINE
  5
3E
100
AcDbEntity
  8
0
  6
CONTINUOUS
 62
             3
100
AcDbLine
 10
-15.0106430054
 20
-184.101947403
 11
-6.34371032715
 21
-182.92009315499999
  0
LINE
  5
3D
100
AcDbEntity
  8
0
  6
CONTINUOUS
 62
             3
100
AcDbLine
 10
-6.34371032715
 20
-182.92009315499999
 11
-0.069157409668
 21
-180.16243286100001
  0
LINE
  5
3C
100
AcDbEntity
  8
0
  6
DOT_CENTER
 62
             2
100
AcDbLine
 10
-32.3445083618
 20
-140.909674072
 11
14.7983524323
 21
-140.909674072
  0
LINE
  5
3B
100
AcDbEntity
  8
0
  6
CONTINUOUS
 62
             3
100
AcDbLine
 10
-76.2691562653
 20
-179.30946006799999
 11
-75.3680187225
 21
-179.30946006799999
  0
LINE
  5
3A
100
AcDbEntity
  8
0
  6
CONTINUOUS
 62
             3
100
AcDbLine
 10
-56.0679477692
 20
-179.30946006799999
 11
-54.9691558838
 21
-179.30946006799999
  0
LINE
  5
39
100
AcDbEntity
  8
0
  6
CONTINUOUS
 62
             3
100
AcDbLine
 10
-56.0679477692
 20
-225.509462738
 11
-54.9691558838
 21
-225.509462738
  0
LINE
  5
38
100
AcDbEntity
  8
0
  6
CONTINUOUS
 62
             3
100
AcDbLine
 10
-76.2691562653
 20
-225.509462738
 11
-75.3680187225
 21
-225.509462738
  0
POINT
  5
37
100
AcDbEntity
  8
1
 62
             3
100
AcDbPoint
 10
-200.36801872300001
 20
-98.3094600677
  0
POINT
  5
36
100
AcDbEntity
  8
1
 62
             3
100
AcDbPoint
 10
-181.067947769
 20
-98.3094600677
  0
POINT
  5
35
100
AcDbEntity
  8
1
 62
             3
100
AcDbPoint
 10
-97.1691566467
 20
-98.3094600677
  0
POINT
  5
34
100
AcDbEntity
  8
1
 62
             3
100
AcDbPoint
 10
-116.469155884
 20
-98.3094600677
  0
POINT
  5
33
100
AcDbEntity
  8
1
 62
             3
100
AcDbPoint
 10
-75.3680187225
 20
-225.509462738
  0
POINT
  5
32
100
AcDbEntity
  8
1
 62
             3
100
AcDbPoint
 10
-56.0679477692
 20
-225.509462738
  0
POINT
  5
31
100
AcDbEntity
  8
1
 62
             3
100
AcDbPoint
 10
-75.3680187225
 20
-179.30946006799999
  0
POINT
  5
30
100
AcDbEntity
  8
1
 62
             3
100
AcDbPoint
 10
-56.0679477692
 20
-179.30946006799999
  0
POINT
  5
2F
100
AcDbEntity
  8
1
 62
             3
100
AcDbPoint
 10
-116.1691566467
 20
-144.509462738
  0
POINT
  5
2E
100
AcDbEntity
  8
1
 62
             3
100
AcDbPoint
 10
-97.1691566467
 20
-144.509462738
  0
POINT
  5
2D
100
AcDbEntity
  8
1
 62
             3
100
AcDbPoint
 10
-181.067947769
 20
-144.509462738
  0
POINT
  5
2C
100
AcDbEntity
  8
1
 62
             3
100
AcDbPoint
 10
-200.36801872300001
 20
-144.509462738
  0
POINT
  5
2B
100
AcDbEntity
  8
1
 62
           250
100
AcDbPoint
 10
-369.33028874010847
 20
-238.05159319169391
  0
POINT
  5
2A
100
AcDbEntity
  8
1
 62
           250
100
AcDbPoint
 10
-369.33028874010847
 20
-85.76732923250607
  0
POINT
  5
29
100
AcDbEntity
  8
1
 62
           250
100
AcDbPoint
 10
17.83396144488748
 20
-85.76732923250607
  0
POINT
  5
28
100
AcDbEntity
  8
1
 62
           250
100
AcDbPoint
 10
17.83396144488748
 20
-238.05159319169391
  0
ENDSEC
  0
SECTION
  2
OBJECTS
  0
DICTIONARY
  5
19
100
AcDbDictionary
  3
ACAD_GROUP
350
1A
  3
ACAD_MLINESTYLE
350
1B
  0
DICTIONARY
  5
1A
102
{ACAD_REACTORS
330
19
102
}
100
AcDbDictionary
  0
DICTIONARY
  5
1B
102
{ACAD_REACTORS
330
19
102
}
100
AcDbDictionary
  3
STANDARD
350
1C
  0
MLINESTYLE
  5
1C
102
{ACAD_REACTORS
330
1B
102
}
100
AcDbMlineStyle
  2
STANDARD
 70
             0
  3

 62
             0
 51
90.0
 52
90.0
 71
             2
 49
0.5
 62
           256
  6
BYLAYER
 49
-0.5
 62
           256
  6
BYLAYER
  0
ENDSEC
  0
EOF
