  0
SECTION
  2
HEADER
  9
$ACADVER
  1
AC1014
  9
$ACADMAINTVER
 70
             0
  9
$DWGCODEPAGE
  3
ANSI_1252
  9
$INSBASE
 10
0.0
 20
0.0
 30
0.0
  9
$EXTMIN
 10
1.00000000000000E+20
 20
1.00000000000000E+20
 30
1.00000000000000E+20
  9
$EXTMAX
 10
-1.00000000000000E+20
 20
-1.00000000000000E+20
 30
-1.00000000000000E+20
  9
$LIMMIN
 10
0.0
 20
0.0
  9
$LIMMAX
 10
0.0
 20
0.0
  9
$ORTHOMODE
 70
             0
  9
$REGENMODE
 70
             1
  9
$FILLMODE
 70
             1
  9
$QTEXTMODE
 70
             0
  9
$MIRRTEXT
 70
             1
  9
$DRAGMODE
 70
             2
  9
$LTSCALE
 40
1.0
  9
$OSMODE
 70
             0
  9
$ATTMODE
 70
             1
  9
$TEXTSIZE
 40
0.2
  9
$TRACEWID
 40
0.05
  9
$TEXTSTYLE
  7
STANDARD
  9
$CLAYER
  8
0
  9
$CELTYPE
  6
CONTINUOUS
  9
$CECOLOR
 62
           256
  9
$CELTSCALE
 40
1.0
  9
$DELOBJ
 70
             1
  9
$DISPSILH
 70
             0
  9
$DIMSCALE
 40
1.0
  9
$DIMASZ
 40
0.18
  9
$DIMEXO
 40
0.0625
  9
$DIMDLI
 40
0.38
  9
$DIMRND
 40
0.0
  9
$DIMDLE
 40
0.0
  9
$DIMEXE
 40
0.18
  9
$DIMTP
 40
0.0
  9
$DIMTM
 40
0.0
  9
$DIMTXT
 40
0.18
  9
$DIMCEN
 40
0.09
  9
$DIMTSZ
 40
0.0
  9
$DIMTOL
 70
             0
  9
$DIMLIM
 70
             0
  9
$DIMTIH
 70
             1
  9
$DIMTOH
 70
             1
  9
$DIMSE1
 70
             0
  9
$DIMSE2
 70
             0
  9
$DIMTAD
 70
             0
  9
$DIMZIN
 70
             0
  9
$DIMBLK
  1

  9
$DIMASO
 70
             1
  9
$DIMSHO
 70
             1
  9
$DIMPOST
  1

  9
$DIMAPOST
  1

  9
$DIMALT
 70
             0
  9
$DIMALTD
 70
             2
  9
$DIMALTF
 40
25.4
  9
$DIMLFAC
 40
1.0
  9
$DIMTOFL
 70
             0
  9
$DIMTVP
 40
0.0
  9
$DIMTIX
 70
             0
  9
$DIMSOXD
 70
             0
  9
$DIMSAH
 70
             0
  9
$DIMBLK1
  1

  9
$DIMBLK2
  1

  9
$DIMSTYLE
  2
STANDARD
  9
$DIMCLRD
 70
             0
  9
$DIMCLRE
 70
             0
  9
$DIMCLRT
 70
             0
  9
$DIMTFAC
 40
1.0
  9
$DIMGAP
 40
0.09
  9
$DIMJUST
 70
             0
  9
$DIMSD1
 70
             0
  9
$DIMSD2
 70
             0
  9
$DIMTOLJ
 70
             1
  9
$DIMTZIN
 70
             0
  9
$DIMALTZ
 70
             0
  9
$DIMALTTZ
 70
             0
  9
$DIMFIT
 70
             3
  9
$DIMUPT
 70
             0
  9
$DIMUNIT
 70
             2
  9
$DIMDEC
 70
             4
  9
$DIMTDEC
 70
             4
  9
$DIMALTU
 70
             2
  9
$DIMALTTD
 70
             2
  9
$DIMTXSTY
  7
STANDARD
  9
$DIMAUNIT
 70
             0
  9
$LUNITS
 70
             2
  9
$LUPREC
 70
             4
  9
$SKETCHINC
 40
0.1
  9
$FILLETRAD
 40
0.0
  9
$AUNITS
 70
             0
  9
$AUPREC
 70
             0
  9
$MENU
  1
acad
  9
$ELEVATION
 40
0.0
  9
$PELEVATION
 40
0.0
  9
$THICKNESS
 40
0.0
  9
$LIMCHECK
 70
             0
  9
$BLIPMODE
 70
             1
  9
$CHAMFERA
 40
0.0
  9
$CHAMFERB
 40
0.0
  9
$CHAMFERC
 40
0.0
  9
$CHAMFERD
 40
0.0
  9
$SKPOLY
 70
             0
  9
$TDCREATE
 40
0.000000000
  9
$TDUPDATE
 40
0.000000000
  9
$TDINDWG
 40
0.0000000000
  9
$TDUSRTIMER
 40
0.0000000000
  9
$USRTIMER
 70
             1
  9
$ANGBASE
 50
0.0
  9
$ANGDIR
 70
             0
  9
$PDMODE
 70
             0
  9
$PDSIZE
 40
0.0
  9
$PLINEWID
 40
0.0
  9
$COORDS
 70
             0
  9
$SPLFRAME
 70
             0
  9
$SPLINETYPE
 70
             6
  9
$SPLINESEGS
 70
             8
  9
$ATTDIA
 70
             0
  9
$ATTREQ
 70
             1
  9
$HANDLING
 70
             1
  9
$HANDSEED
  5
72
  9
$SURFTAB1
 70
             6
  9
$SURFTAB2
 70
             6
  9
$SURFTYPE
 70
             6
  9
$SURFU
 70
             6
  9
$SURFV
 70
             6
  9
$UCSNAME
  2

  9
$UCSORG
 10
0.0
 20
0.0
 30
0.0
  9
$UCSXDIR
 10
1.0
 20
0.0
 30
0.0
  9
$UCSYDIR
 10
0.0
 20
1.0
 30
0.0
  9
$PUCSNAME
  2

  9
$PUCSORG
 10
0.0
 20
0.0
 30
0.0
  9
$PUCSXDIR
 10
1.0
 20
0.0
 30
0.0
  9
$PUCSYDIR
 10
0.0
 20
1.0
 30
0.0
  9
$USERI1
 70
             0
  9
$USERI2
 70
             0
  9
$USERI3
 70
             0
  9
$USERI4
 70
             0
  9
$USERI5
 70
             0
  9
$USERR1
 40
11.0
  9
$USERR2
 40
0.0
  9
$USERR3
 40
0.0
  9
$USERR4
 40
0.0
  9
$USERR5
 40
0.0
  9
$WORLDVIEW
 70
             1
  9
$SHADEDGE
 70
             3
  9
$SHADEDIF
 70
            70
  9
$TILEMODE
 70
             1
  9
$MAXACTVP
 70
            16
  9
$PINSBASE
 10
0.0
 20
0.0
 30
0.0
  9
$PLIMCHECK
 70
             0
  9
$PEXTMIN
 10
1.00000000000000E+20
 20
1.00000000000000E+20
 30
1.00000000000000E+20
  9
$PEXTMAX
 10
-1.00000000000000E+20
 20
-1.00000000000000E+20
 30
-1.00000000000000E+20
  9
$PLIMMIN
 10
0.0
 20
0.0
  9
$PLIMMAX
 10
12.0
 20
9.0
  9
$UNITMODE
 70
             0
  9
$VISRETAIN
 70
             0
  9
$PLINEGEN
 70
             1
  9
$PSLTSCALE
 70
             0
  9
$TREEDEPTH
 70
          3020
  9
$PICKSTYLE
 70
             1
  9
$CMLSTYLE
  2
STANDARD
  9
$CMLJUST
 70
             0
  9
$CMLSCALE
 40
1.0
  9
$PROXYGRAPHICS
 70
             0
  9
$MEASUREMENT
 70
             1
  0
ENDSEC
  0
SECTION
  2
CLASSES
  0
CLASS
  1
LWPOLYLINE
  2
AcDbPolyline
  3
"AutoCAD"
 90
        0
280
             0
281
             1
  0
CLASS
  1
IMAGE
  2
AcDbRasterImage
  3
ISM
 90
      127
280
             0
281
             1
  0
CLASS
  1
OLE2FRAME
  2
AcDbOle2Frame
  3
""
 90
        0
280
             0
281
             1
  0
CLASS
  1
HATCH
  2
AcDbHatch
  3
"ACAD_SEDONA"
 90
        0
280
             0
281
             1
  0
CLASS
  1
DICTIONARYVAR
  2
AcDbDictionaryVar
  3
"AutoCAD"
 90
        0
280
             0
281
             0
  0
CLASS
  1
RASTERVARIABLES
  2
AcDbRasterVariables
  3
ISM
 90
        0
280
             0
281
             0
  0
CLASS
  1
IMAGEDEF
  2
AcDbRasterImageDef
  3
ISM
 90
        0
280
             0
281
             0
  0
CLASS
  1
IMAGEDEF_REACTOR
  2
AcDbRasterImageDefReactor
  3
ISM
 90
        1
280
             0
281
             0
  0
CLASS
  1
IDBUFFER
  2
AcDbIdBuffer
  3
"Acad"
 90
        0
280
             0
281
             0
  0
CLASS
  1
SPATIAL_FILTER
  2
AcDbSpatialFilter
  3
"Acad"
 90
        0
280
             0
281
             0
  0
CLASS
  1
XRECORD
  2
AcDbXrecord
  3
"<Built In>"
 90
        0
280
             0
281
             0
  0
CLASS
  1
SORTENTSTABLE
  2
AcDbSortentsTable
  3
"AutoCAD"
 90
        0
280
             0
281
             0
  0
CLASS
  1
LAYER_INDEX
  2
AcDbLayerIndex
  3
"Acad"
 90
        0
280
             0
281
             0
  0
CLASS
  1
SPATIAL_INDEX
  2
AcDbSpatialIndex
  3
"Acad"
 90
        0
280
             0
281
             0
  0
CLASS
  1
OBJECT_PTR
  2
CAseDLPNTableRecord
  3
"ASE-LPNTableRecord"
 90
        1
280
             0
281
             0
  0
CLASS
  1
LAYOUT
  2
AcDbLayout
  3
"AutoCAD 2000"
 90
        1
280
             0
281
             0
  0
CLASS
  1
PLOTSETTINGS
  2
AcDbPlotSettings
  3
"AutoCAD 2000"
 90
        1
280
             0
281
             0
  0
CLASS
  1
ACDBDICTIONARYWDFLT
  2
AcDbDictionaryWithDefault
  3
"AutoCAD 2000"
 90
        1
280
             0
281
             0
  0
CLASS
  1
ACDBPLACEHOLDER
  2
AcDbPlaceHolder
  3
"AutoCAD 2000"
 90
        1
280
             0
281
             0
  0
CLASS
  1
VBA_PROJECT
  2
AcDbVbaProject
  3
"acadvba"
 90
        1
280
             0
281
             0
  0
CLASS
  1
WIPEOUT
  2
AcDbWipeout
  3
WipeOut|AutoCAD Express Tool|expresstools@autodesk.com
 90
      127
280
             0
281
             1
  0
CLASS
  1
WIPEOUTVARIABLES
  2
AcDbWipeoutVariables
  3
WipeOut|AutoCAD Express Tool|expresstools@autodesk.com
 90
        0
280
             0
281
             0
  0
CLASS
  1
RTEXT
  2
RText
  3
RText|AutoCAD Express Tool|expresstools@autodesk.com
 90
        0
280
             0
281
             1
  0
CLASS
  1
ARCALIGNEDTEXT
  2
AcDbArcAlignedText
  3
ATEXT|AutoCAD Express Tool|expresstools@autodesk.com
 90
        0
280
             0
281
             1
  0
ENDSEC
  0
SECTION
  2
TABLES
  0
TABLE
  2
VPORT
  5
7
100
AcDbSymbolTable
 70
             1
  0
VPORT
  5
15
100
AcDbSymbolTableRecord
100
AcDbViewportTableRecord
  2
*ACTIVE
 70
             0
 10
0.0
 20
0.0
 11
1.0
 21
1.0
 12
94.95150646921576
 22
0.0001069730621
 13
0.0
 23
0.0
 14
1.0
 24
1.0
 15
0.0
 25
0.0
 16
0.0
 26
0.0
 36
1.0
 17
0.0
 27
0.0
 37
0.0
 40
168.72733347272521
 41
1.60267857142857
 42
50.0
 43
0.0
 44
0.0
 50
0.0
 51
0.0
 71
             0
 72
           100
 73
             1
 74
             1
 75
             0
 76
             0
 77
             0
 78
             0
  0
ENDTAB
  0
TABLE
  2
LTYPE
  5
4
100
AcDbSymbolTable
 70
            10
  0
LTYPE
  5
11
100
AcDbSymbolTableRecord
100
AcDbLinetypeTableRecord
  2
BYBLOCK
 70
            64
  3

 72
            65
 73
             0
 40
0.0
  0
LTYPE
  5
12
100
AcDbSymbolTableRecord
100
AcDbLinetypeTableRecord
  2
BYLAYER
 70
            64
  3

 72
            65
 73
             0
 40
0.0
  0
LTYPE
  5
13
100
AcDbSymbolTableRecord
100
AcDbLinetypeTableRecord
  2
CONTINUOUS
 70
            64
  3
Solid line
 72
            65
 73
             0
 40
0.0
  0
LTYPE
  5
1D
100
AcDbSymbolTableRecord
100
AcDbLinetypeTableRecord
  2
DASHED
 70
            64
  3
Dashed
 72
            65
 73
             2
 40
15.0
 49
12.0
 74
             0
 49
-3.0
 74
             0
  0
LTYPE
  5
1E
100
AcDbSymbolTableRecord
100
AcDbLinetypeTableRecord
  2
DOTTED
 70
            64
  3
Dotted
 72
            65
 73
             2
 40
3.5
 49
0.5
 74
             0
 49
-3.0
 74
             0
  0
LTYPE
  5
1F
100
AcDbSymbolTableRecord
100
AcDbLinetypeTableRecord
  2
DOT_CENTER
 70
            64
  3
Dot_Center
 72
            65
 73
             4
 40
2.0
 49
1.25
 74
             0
 49
-0.25
 74
             0
 49
0.25
 74
             0
 49
-0.25
 74
             0
  0
LTYPE
  5
20
100
AcDbSymbolTableRecord
100
AcDbLinetypeTableRecord
  2
LONG_DASHED
 70
            64
  3
Long_Dashed
 72
            65
 73
             2
 40
2.0
 49
1.5
 74
             0
 49
-0.5
 74
             0
  0
LTYPE
  5
21
100
AcDbSymbolTableRecord
100
AcDbLinetypeTableRecord
  2
DASH_CENTER
 70
            64
  3
Dash_Center
 72
            65
 73
             4
 40
36.0
 49
24.0
 74
             0
 49
-3.0
 74
             0
 49
6.0
 74
             0
 49
-3.0
 74
             0
  0
LTYPE
  5
22
100
AcDbSymbolTableRecord
100
AcDbLinetypeTableRecord
  2
PHANTOM
 70
            64
  3
Phantom
 72
            65
 73
             6
 40
2.5
 49
1.25
 74
             0
 49
-0.25
 74
             0
 49
0.25
 74
             0
 49
-0.25
 74
             0
 49
0.25
 74
             0
 49
-0.25
 74
             0
  0
LTYPE
  5
23
100
AcDbSymbolTableRecord
100
AcDbLinetypeTableRecord
  2
CENTER_DASH_DASH
 70
            64
  3
Center_Dash_Dash
 72
            65
 73
             6
 40
22.0
 49
12.0
 74
             0
 49
-3.0
 74
             0
 49
0.5
 74
             0
 49
-3.0
 74
             0
 49
0.5
 74
             0
 49
-3.0
 74
             0
  0
ENDTAB
  0
TABLE
  2
LAYER
  5
2
100
AcDbSymbolTable
 70
             2
  0
LAYER
  5
14
100
AcDbSymbolTableRecord
100
AcDbLayerTableRecord
  2
0
 70
             0
 62
             7
  6
CONTINUOUS
  0
LAYER
  5
24
100
AcDbSymbolTableRecord
100
AcDbLayerTableRecord
  2
1
 70
             0
 62
             7
  6
CONTINUOUS
  0
ENDTAB
  0
TABLE
  2
STYLE
  5
3
100
AcDbSymbolTable
 70
             1
  0
STYLE
  5
17
100
AcDbSymbolTableRecord
100
AcDbTextStyleTableRecord
  2
STANDARD
 70
             0
 40
0.0
 41
1.0
 50
0.0
 71
             0
 42
0.0
  3
txt
  4

  0
ENDTAB
  0
TABLE
  2
VIEW
  5
5
100
AcDbSymbolTable
 70
             0
  0
ENDTAB
  0
TABLE
  2
UCS
  5
6
100
AcDbSymbolTable
 70
             0
  0
ENDTAB
  0
TABLE
  2
APPID
  5
8
100
AcDbSymbolTable
 70
             1
  0
APPID
  5
16
100
AcDbSymbolTableRecord
100
AcDbRegAppTableRecord
  2
ACAD
 70
             0
  0
ENDTAB
  0
TABLE
  2
DIMSTYLE
  5
9
100
AcDbSymbolTable
 70
             1
  0
DIMSTYLE
105
18
100
AcDbSymbolTableRecord
100
AcDbDimStyleTableRecord
  2
STANDARD
 70
             0
  3

  4

  5

  6

  7

 40
1.0
 41
0.18
 42
0.0625
 43
0.38
 44
0.18
 45
0.0
 46
0.0
 47
0.0
 48
0.0
 71
             0
 72
             0
 73
             1
 74
             1
 75
             0
 76
             0
 77
             0
 78
             0
140
0.18
141
0.09
142
0.0
143
25.4
144
1.0
145
0.0
146
1.0
147
0.09
170
             0
171
             2
172
             0
173
             0
174
             0
175
             0
176
             0
177
             0
178
             0
270
             2
271
             4
272
             4
273
             2
274
             2
275
             0
280
             0
281
             0
282
             0
283
             1
284
             0
285
             0
286
             0
287
             0
288
             0
340
17
  0
ENDTAB
  0
TABLE
  2
BLOCK_RECORD
  5
1
100
AcDbSymbolTable
 70
             0
  0
BLOCK_RECORD
  5
A
100
AcDbSymbolTableRecord
100
AcDbBlockTableRecord
  2
*MODEL_SPACE
  0
BLOCK_RECORD
  5
B
100
AcDbSymbolTableRecord
100
AcDbBlockTableRecord
  2
*PAPER_SPACE
  0
ENDTAB
  0
ENDSEC
  0
SECTION
  2
BLOCKS
  0
BLOCK
  5
D
100
AcDbEntity
  8
0
100
AcDbBlockBegin
  2
*MODEL_SPACE
 70
             0
 10
0.0
 20
0.0
 30
0.0
  3
*MODEL_SPACE
  1

  0
ENDBLK
  5
E
100
AcDbEntity
  8
0
100
AcDbBlockEnd
  0
BLOCK
  5
F
100
AcDbEntity
 67
             1
  8
0
100
AcDbBlockBegin
  2
*PAPER_SPACE
 70
             0
 10
0.0
 20
0.0
 30
0.0
  3
*PAPER_SPACE
  1

  0
ENDBLK
  5
10
100
AcDbEntity
 67
             1
  8
0
100
AcDbBlockEnd
  0
ENDSEC
  0
SECTION
  2
ENTITIES
  0
LWPOLYLINE
  5
70
100
AcDbEntity
  8
0
  6
CONTINUOUS
 62
             7
100
AcDbPolyline
 90
        2
 70
             1
 43
0.01
 10
186.01898348524017
 20
-0.6506862099121
 42
1.0
 10
216.01898217124028
 20
-0.6506862099121
 42
1.0
  0
LWPOLYLINE
  5
6F
100
AcDbEntity
  8
0
  6
CONTINUOUS
 62
             7
100
AcDbPolyline
 90
        2
 70
             1
 43
0.01
 10
191.0189821712402
 20
-0.6506862099121
 42
1.0
 10
211.01898348524026
 20
-0.6506862099121
 42
1.0
  0
LWPOLYLINE
  5
6E
100
AcDbEntity
  8
0
  6
CONTINUOUS
 62
             7
100
AcDbPolyline
 90
        2
 70
             0
 43
0.01
 10
178.96676794884431
 20
-0.5008609788229
 42
0.19194206939982
 10
166.04830351621149
 20
8.4625777379146
 42
0.19194206939982
  0
LWPOLYLINE
  5
6D
100
AcDbEntity
  8
0
  6
CONTINUOUS
 62
             7
100
AcDbPolyline
 90
        2
 70
             0
 43
0.01
 10
165.9900289652274
 20
-9.5373278247388
 42
0.19900984368707
 10
178.96676794884431
 20
-0.5008609788229
 42
0.19900984368707
  0
LWPOLYLINE
  5
6C
100
AcDbEntity
  8
0
  6
CONTINUOUS
 62
             7
100
AcDbPolyline
 90
        2
 70
             0
 43
0.01
 10
192.8241442176928
 20
-18.1338049509957
 42
0.08111433213382
 10
165.98355408831679
 20
-11.5373168809556
 42
0.08111433213382
  0
LWPOLYLINE
  5
6B
100
AcDbEntity
  8
0
  6
CONTINUOUS
 62
             7
100
AcDbPolyline
 90
        2
 70
             0
 43
0.01
 10
166.05477822712089
 20
10.4625675388545
 42
0.08111432559836
 10
192.93751528444369
 20
16.8851261802963
 42
0.08111432559836
  0
LWPOLYLINE
  5
6A
100
AcDbEntity
  8
0
  6
CONTINUOUS
 62
             7
100
AcDbPolyline
 90
        2
 70
             0
 43
0.01
 10
166.05477822712089
 20
10.4625675388545
 42
0.03081581759339
 10
176.51915642986779
 20
11.8759342795031
 42
0.03081581759339
  0
LWPOLYLINE
  5
69
100
AcDbEntity
  8
0
  6
CONTINUOUS
 62
             7
100
AcDbPolyline
 90
        2
 70
             0
 43
0.01
 10
179.9958296633167
 20
12.6410701696439
 42
0.0397722311783
 10
192.93751528444369
 20
16.8851261802963
 42
0.0397722311783
  0
LWPOLYLINE
  5
68
100
AcDbEntity
  8
0
  6
CONTINUOUS
 62
             7
100
AcDbPolyline
 90
        2
 70
             0
 43
0.01
 10
195.57519886670471
 20
17.3417575813824
 42
0.11296148853304
 10
192.93751528444369
 20
16.8851261802963
 42
0.11296148853304
  0
LWPOLYLINE
  5
67
100
AcDbEntity
  8
0
  6
CONTINUOUS
 62
             7
100
AcDbPolyline
 90
        2
 70
             0
 43
0.01
 10
208.54434502789661
 20
12.32501894764711
 42
0.15909412074488
 10
195.57519886670471
 20
17.3417575813824
 42
0.15909412074488
  0
LWPOLYLINE
  5
66
100
AcDbEntity
  8
0
  6
CONTINUOUS
 62
             7
100
AcDbPolyline
 90
        2
 70
             0
 43
0.01
 10
192.8241442176928
 20
-18.1338049509957
 42
0.11296151863054
 10
195.45881680646701
 20
-18.60750450753049
 42
0.11296151863054
  0
LWPOLYLINE
  5
65
100
AcDbEntity
  8
0
  6
CONTINUOUS
 62
             7
100
AcDbPolyline
 90
        2
 70
             0
 43
0.01
 10
195.45881680646701
 20
-18.60750450753049
 42
0.15909407480473
 10
208.46017072320291
 20
-13.6748452420503
 42
0.15909407480473
  0
LWPOLYLINE
  5
64
100
AcDbEntity
  8
0
  6
CONTINUOUS
 62
             7
100
AcDbPolyline
 90
        2
 70
             0
 43
0.01
 10
123.0289361095064
 20
8.60185224107791
 42
0.4142135672937
 10
119.0160069196652
 20
4.6148228052986
 42
0.4142135672937
  0
LWPOLYLINE
  5
63
100
AcDbEntity
  8
0
  6
CONTINUOUS
 62
             7
100
AcDbPolyline
 90
        2
 70
             0
 43
0.01
 10
118.9836330334799
 20
-5.3851247108981
 42
0.41421357359949
 10
122.9706615584892
 20
-9.39805332158291
 42
0.41421357359949
  0
LWPOLYLINE
  5
62
100
AcDbEntity
  8
0
  6
CONTINUOUS
 62
             7
100
AcDbPolyline
 90
        2
 70
             0
 43
0.01
 10
110.9707248200815
 20
-9.35920381453069
 42
0.41421350551659
 10
114.9836534313845
 20
-5.3721752895373
 42
0.41421350551659
  0
LWPOLYLINE
  5
61
100
AcDbEntity
  8
0
  6
CONTINUOUS
 62
             7
100
AcDbPolyline
 90
        2
 70
             0
 43
0.01
 10
115.0160280622419
 20
4.62777239275181
 42
0.41421357079508
 10
111.0289986262441
 20
8.64070158302171
 42
0.41421357079508
  0
LWPOLYLINE
  5
60
100
AcDbEntity
  8
0
  6
CONTINUOUS
 62
             7
100
AcDbPolyline
 90
        2
 70
             0
 43
0.01
 10
28.17899828193032
 20
-31.88803264124859
 42
0.02735896545349
 10
25.88375823383359
 20
-36.08387845813211
 42
0.02735896545349
  0
LWPOLYLINE
  5
5F
100
AcDbEntity
  8
0
  6
CONTINUOUS
 62
             7
100
AcDbPolyline
 90
        2
 70
             0
 43
0.01
 10
32.44923770716969
 20
26.10680736957666
 42
0.21537118978639
 10
65.0357146949017
 20
10.7896143717945
 42
0.21537118978639
  0
LWPOLYLINE
  5
5E
100
AcDbEntity
  8
0
  6
CONTINUOUS
 62
             7
100
AcDbPolyline
 90
        2
 70
             0
 43
0.01
 10
20.88378410448581
 20
-36.0676915984324
 42
0.41421362445227
 10
19.88702684790951
 20
-35.06445888714619
 42
0.41421362445227
  0
LWPOLYLINE
  5
5D
100
AcDbEntity
  8
0
  6
CONTINUOUS
 62
             7
100
AcDbPolyline
 90
        2
 70
             0
 43
0.01
 10
5.88710105303892
 20
-35.01913450180389
 42
0.41421384927077
 10
4.88386850785162
 20
-36.01589250308159
 42
0.41421384927077
  0
LWPOLYLINE
  5
5C
100
AcDbEntity
  8
0
  6
CONTINUOUS
 62
             7
100
AcDbPolyline
 90
        2
 70
             0
 43
0.01
 10
-5.11607917462899
 20
-35.98351787136529
 42
0.41421357516175
 10
-6.11283643001158
 20
-34.98028516083751
 42
0.41421357516175
  0
LWPOLYLINE
  5
5B
100
AcDbEntity
  8
0
  6
CONTINUOUS
 62
             7
100
AcDbPolyline
 90
        2
 70
             0
 43
0.01
 10
-20.1127629695836
 20
-34.93496094159399
 42
0.41421363137617
 10
-21.11599493616839
 20
-35.9317180320714
 42
0.41421363137617
  0
LWPOLYLINE
  5
5A
100
AcDbEntity
  8
0
  6
CONTINUOUS
 62
             7
100
AcDbPolyline
 90
        2
 70
             0
 43
0.01
 10
-20.88289764346769
 20
36.06790479909687
 42
0.41421362248856
 10
-19.8861405539663
 20
35.06467283229442
 42
0.41421362248856
  0
LWPOLYLINE
  5
59
100
AcDbEntity
  8
0
  6
CONTINUOUS
 62
             7
100
AcDbPolyline
 90
        2
 70
             0
 43
0.01
 10
-5.88621384753711
 20
35.01934786954327
 42
0.41421375392672
 10
-4.8829813031081
 20
36.01610586962721
 42
0.41421375392672
  0
LWPOLYLINE
  5
58
100
AcDbEntity
  8
0
  6
CONTINUOUS
 62
             7
100
AcDbPolyline
 90
        2
 70
             0
 43
0.01
 10
5.11696563445338
 20
35.9837310727881
 42
0.41421346441183
 10
6.11372272493088
 20
34.98049910620335
 42
0.41421346441183
  0
LWPOLYLINE
  5
57
100
AcDbEntity
  8
0
  6
CONTINUOUS
 62
             7
100
AcDbPolyline
 90
        2
 70
             0
 43
0.01
 10
20.11364943018879
 20
34.93517414319096
 42
0.41421364519264
 10
21.11688214159511
 20
35.93193139876944
 42
0.41421364519264
  0
LWPOLYLINE
  5
56
100
AcDbEntity
  8
0
  6
CONTINUOUS
 62
             7
100
AcDbPolyline
 90
        2
 70
             0
 43
0.01
 10
32.89100706500858
 20
-8.61439632275479
 42
0.12713970129156
 10
32.94613799426531
 20
8.4014609305119
 42
0.12713970129156
  0
LWPOLYLINE
  5
55
100
AcDbEntity
  8
0
  6
CONTINUOUS
 62
             7
100
AcDbPolyline
 90
        2
 70
             0
 43
0.01
 10
32.89100706500858
 20
-8.61439632275479
 42
0.5382966270667
 10
36.23638143806193
 20
-12.34157100649729
 42
0.5382966270667
  0
LWPOLYLINE
  5
54
100
AcDbEntity
  8
0
  6
CONTINUOUS
 62
             7
100
AcDbPolyline
 90
        2
 70
             0
 43
0.01
 10
64.9709654330082
 20
-9.21028099179891
 42
0.01987925235456
 10
36.23638143806193
 20
-12.34157100649729
 42
0.01987925235456
  0
LWPOLYLINE
  5
53
100
AcDbEntity
  8
0
  6
CONTINUOUS
 62
             7
100
AcDbPolyline
 90
        2
 70
             0
 43
0.01
 10
36.31557537383782
 20
12.1068961882891
 42
0.5382964928054
 10
32.94613799426531
 20
8.4014609305119
 42
0.5382964928054
  0
LWPOLYLINE
  5
52
100
AcDbEntity
  8
0
  6
CONTINUOUS
 62
             7
100
AcDbPolyline
 90
        2
 70
             0
 43
0.01
 10
36.31557537383782
 20
12.1068961882891
 42
0.01987922202703
 10
65.0292399839923
 20
8.7896245708545
 42
0.01987922202703
  0
LWPOLYLINE
  5
51
100
AcDbEntity
  8
0
  6
CONTINUOUS
 62
             7
100
AcDbPolyline
 90
        2
 70
             0
 43
0.01
 10
26.11685627172369
 20
35.91574453924387
 42
0.02467479503014
 10
28.14224681914959
 20
32.10677602864934
 42
0.02467479503014
  0
LWPOLYLINE
  5
50
100
AcDbEntity
  8
0
  6
CONTINUOUS
 62
             7
100
AcDbPolyline
 90
        2
 70
             0
 43
0.01
 10
28.14224681914959
 20
32.10677602864934
 42
0.0422944656823
 10
32.44923770716969
 20
26.10680736957666
 42
0.0422944656823
  0
LWPOLYLINE
  5
4F
100
AcDbEntity
  8
0
  6
CONTINUOUS
 62
             7
100
AcDbPolyline
 90
        2
 70
             0
 43
0.01
 10
64.9644905563153
 20
-11.21027004899169
 42
0.21202553449419
 10
32.64859546164939
 20
-25.8953484035501
 42
0.21202553449419
  0
LWPOLYLINE
  5
4E
100
AcDbEntity
  8
0
  6
CONTINUOUS
 62
             7
100
AcDbPolyline
 90
        2
 70
             0
 43
0.01
 10
32.64859546164939
 20
-25.8953484035501
 42
0.04281258431867
 10
28.17899828193032
 20
-31.88803264124859
 42
0.04281258431867
  0
LWPOLYLINE
  5
4D
100
AcDbEntity
  8
1
  6
CONTINUOUS
 62
             7
100
AcDbPolyline
 90
        2
 70
             0
 43
0.01
 10
-0.11610578878879
 20
-35.99970489792209
 10
-0.11610578878879
 20
-22.9997727200241
  0
LWPOLYLINE
  5
4C
100
AcDbEntity
  8
1
  6
DASHED
 62
             7
100
AcDbPolyline
 90
        2
 70
             0
 43
0.01
 10
32.44923770716969
 20
-26.34238938336667
 10
-25.91517321436351
 20
-26.34238938336667
  0
LWPOLYLINE
  5
4B
100
AcDbEntity
  8
0
  6
CONTINUOUS
 62
             7
100
AcDbPolyline
 90
        2
 70
             0
 43
0.01
 10
110.9707248200815
 20
-9.35920381453069
 10
110.9642493646659
 20
-11.35919378152589
  0
LWPOLYLINE
  5
4A
100
AcDbEntity
  8
0
  6
CONTINUOUS
 62
             7
100
AcDbPolyline
 90
        2
 70
             0
 43
0.01
 10
122.9706615584892
 20
-9.39805332158291
 10
122.9641861030052
 20
-11.3980432885934
  0
LWPOLYLINE
  5
49
100
AcDbEntity
  8
0
  6
CONTINUOUS
 62
             7
100
AcDbPolyline
 90
        2
 70
             0
 43
0.01
 10
118.9836330334799
 20
-5.3851247108981
 10
119.0160069196652
 20
4.6148228052986
  0
LWPOLYLINE
  5
48
100
AcDbEntity
  8
0
  6
CONTINUOUS
 62
             7
100
AcDbPolyline
 90
        2
 70
             0
 43
0.01
 10
115.0160280622419
 20
4.62777239275181
 10
114.9836534313845
 20
-5.3721752895373
  0
LWPOLYLINE
  5
47
100
AcDbEntity
  8
0
  6
CONTINUOUS
 62
             7
100
AcDbPolyline
 90
        2
 70
             0
 43
0.01
 10
111.0354733371535
 20
10.6406913839616
 10
111.0289986262441
 20
8.64070158302171
  0
LWPOLYLINE
  5
46
100
AcDbEntity
  8
0
  6
CONTINUOUS
 62
             7
100
AcDbPolyline
 90
        2
 70
             0
 43
0.01
 10
123.0354108203467
 20
10.6018420420024
 10
123.0289361095064
 20
8.60185224107791
  0
LWPOLYLINE
  5
45
100
AcDbEntity
  8
0
  6
CONTINUOUS
 62
             7
100
AcDbPolyline
 90
        2
 70
             0
 43
0.01
 10
165.98355408831679
 20
-11.5373168809556
 10
64.9644905563153
 20
-11.21027004899169
  0
LWPOLYLINE
  5
44
100
AcDbEntity
  8
0
  6
CONTINUOUS
 62
             7
100
AcDbPolyline
 90
        2
 70
             0
 43
0.01
 10
65.0357146949017
 20
10.7896143717945
 10
166.05477822712089
 20
10.4625675388545
  0
LWPOLYLINE
  5
43
100
AcDbEntity
  8
0
  6
CONTINUOUS
 62
             7
100
AcDbPolyline
 90
        2
 70
             0
 43
0.01
 10
0.07490472391572
 20
22.99998592144686
 10
0.1169922486132
 20
35.99991809934498
  0
LWPOLYLINE
  5
42
100
AcDbEntity
  8
0
  6
CONTINUOUS
 62
             7
100
AcDbPolyline
 90
        2
 70
             0
 43
0.01
 10
20.88378393838701
 20
-36.06769085373101
 10
25.88375823383359
 20
-36.08387845813211
  0
LWPOLYLINE
  5
41
100
AcDbEntity
  8
0
  6
CONTINUOUS
 62
             7
100
AcDbPolyline
 90
        2
 70
             0
 43
0.01
 10
20.88378410448581
 20
-36.0676915984324
 10
20.88378393838701
 20
-36.06769085373101
  0
LWPOLYLINE
  5
40
100
AcDbEntity
  8
0
  6
CONTINUOUS
 62
             7
100
AcDbPolyline
 90
        2
 70
             0
 43
0.01
 10
5.88710105303892
 20
-35.01913450180389
 10
19.88702684790951
 20
-35.06445888714619
  0
LWPOLYLINE
  5
3F
100
AcDbEntity
  8
0
  6
CONTINUOUS
 62
             7
100
AcDbPolyline
 90
        2
 70
             0
 43
0.01
 10
4.88386834175282
 20
-36.01589175838019
 10
4.88386850785162
 20
-36.01589250308159
  0
LWPOLYLINE
  5
3E
100
AcDbEntity
  8
0
  6
CONTINUOUS
 62
             7
100
AcDbPolyline
 90
        2
 70
             0
 43
0.01
 10
-5.1160793405102
 20
-35.9835171276399
 10
4.88386834175282
 20
-36.01589175838019
  0
LWPOLYLINE
  5
3D
100
AcDbEntity
  8
0
  6
CONTINUOUS
 62
             7
100
AcDbPolyline
 90
        2
 70
             0
 43
0.01
 10
-5.11607917462899
 20
-35.98351787136529
 10
-5.1160793405102
 20
-35.9835171276399
  0
LWPOLYLINE
  5
3C
100
AcDbEntity
  8
0
  6
CONTINUOUS
 62
             7
100
AcDbPolyline
 90
        2
 70
             0
 43
0.01
 10
-20.1127629695836
 20
-34.93496094159399
 10
-6.11283643001158
 20
-34.98028516083751
  0
LWPOLYLINE
  5
3B
100
AcDbEntity
  8
0
  6
CONTINUOUS
 62
             7
100
AcDbPolyline
 90
        2
 70
             0
 43
0.01
 10
-26.11596923280879
 20
-35.91553042691199
 10
-21.11599493616839
 20
-35.9317180320714
  0
LWPOLYLINE
  5
3A
100
AcDbEntity
  8
0
  6
CONTINUOUS
 62
             7
100
AcDbPolyline
 90
        2
 70
             0
 43
0.01
 10
-20.88289764346769
 20
36.06790479909687
 10
-25.88287194010809
 20
36.0840924042563
  0
LWPOLYLINE
  5
39
100
AcDbEntity
  8
0
  6
CONTINUOUS
 62
             7
100
AcDbPolyline
 90
        2
 70
             0
 43
0.01
 10
-5.88621384753711
 20
35.01934786954327
 10
-19.8861405539663
 20
35.06467283229442
  0
LWPOLYLINE
  5
38
100
AcDbEntity
  8
0
  6
CONTINUOUS
 62
             7
100
AcDbPolyline
 90
        2
 70
             0
 43
0.01
 10
5.11696563445338
 20
35.9837310727881
 10
-4.8829813031081
 20
36.01610586962721
  0
LWPOLYLINE
  5
37
100
AcDbEntity
  8
0
  6
CONTINUOUS
 62
             7
100
AcDbPolyline
 90
        2
 70
             0
 43
0.01
 10
20.11364943018879
 20
34.93517414319096
 10
6.11372272493088
 20
34.98049910620335
  0
LWPOLYLINE
  5
36
100
AcDbEntity
  8
0
  6
CONTINUOUS
 62
             7
100
AcDbPolyline
 90
        2
 70
             0
 43
0.01
 10
26.11685627172369
 20
35.91574453924387
 10
21.11688214159511
 20
35.93193139876944
  0
LWPOLYLINE
  5
35
100
AcDbEntity
  8
0
  6
CONTINUOUS
 62
             7
100
AcDbPolyline
 90
        2
 70
             0
 43
0.01
 10
122.9706317674089
 20
-9.39805293150069
 10
165.9900289652274
 20
-9.5373278247388
  0
LWPOLYLINE
  5
34
100
AcDbEntity
  8
0
  6
CONTINUOUS
 62
             7
100
AcDbPolyline
 90
        2
 70
             0
 43
0.01
 10
64.9709654330082
 20
-9.21028099179891
 10
110.9707318541037
 20
-9.35920380915299
  0
LWPOLYLINE
  5
33
100
AcDbEntity
  8
0
  6
CONTINUOUS
 62
             7
100
AcDbPolyline
 90
        2
 70
             0
 43
0.01
 10
111.0290165835041
 20
8.6407016794827
 10
65.0292399839923
 20
8.7896245708545
  0
LWPOLYLINE
  5
32
100
AcDbEntity
  8
0
  6
CONTINUOUS
 62
             7
100
AcDbPolyline
 90
        2
 70
             0
 43
0.01
 10
166.04830351621149
 20
8.4625777379146
 10
123.0289087182348
 20
8.6018523856918
  0
LINE
  5
31
100
AcDbEntity
  8
1
  6
DASH_CENTER
 62
             2
100
AcDbLine
 10
213.01898348524031
 20
-0.6506862099121
 11
189.0189821712402
 21
-0.6506862099121
  0
LINE
  5
30
100
AcDbEntity
  8
1
  6
DASH_CENTER
 62
             2
100
AcDbLine
 10
201.01898282824021
 20
11.34931444708791
 11
201.01898282824021
 21
-12.65068686691221
  0
LWPOLYLINE
  5
2F
100
AcDbEntity
  8
1
  6
DASHED
 62
             7
100
AcDbPolyline
 90
        2
 70
             0
 43
0.01
 10
-25.89574842770989
 20
32.10677602864934
 10
28.14224681914959
 20
32.10677602864934
  0
LWPOLYLINE
  5
2E
100
AcDbEntity
  8
1
  6
DASHED
 62
             7
100
AcDbPolyline
 90
        2
 70
             0
 43
0.01
 10
-25.91517321436351
 20
26.10680736957666
 10
32.44923770716969
 20
26.10680736957666
  0
LWPOLYLINE
  5
2D
100
AcDbEntity
  8
1
  6
DASHED
 62
             7
100
AcDbPolyline
 90
        2
 70
             0
 43
0.01
 10
-26.10293028376108
 20
-31.88803264124859
 10
28.17899828193032
 20
-31.88803264124859
  0
POINT
  5
2C
100
AcDbEntity
  8
1
 62
           250
100
AcDbPoint
 10
0.0
 20
0.0
  0
POINT
  5
2B
100
AcDbEntity
  8
1
 62
           250
100
AcDbPoint
 10
-27.96471251761119
 20
-36.63845691647517
  0
POINT
  5
2A
100
AcDbEntity
  8
1
 62
           250
100
AcDbPoint
 10
-27.96471251761119
 20
36.63867086259936
  0
POINT
  5
29
100
AcDbEntity
  8
1
 62
           250
100
AcDbPoint
 10
217.86772545604271
 20
36.63867086259936
  0
POINT
  5
28
100
AcDbEntity
  8
1
 62
           250
100
AcDbPoint
 10
217.86772545604271
 20
-36.63845691647517
  0
ENDSEC
  0
SECTION
  2
OBJECTS
  0
DICTIONARY
  5
19
100
AcDbDictionary
  3
ACAD_GROUP
350
1A
  3
ACAD_MLINESTYLE
350
1B
  0
DICTIONARY
  5
1A
102
{ACAD_REACTORS
330
19
102
}
100
AcDbDictionary
  0
DICTIONARY
  5
1B
102
{ACAD_REACTORS
330
19
102
}
100
AcDbDictionary
  3
STANDARD
350
1C
  0
MLINESTYLE
  5
1C
102
{ACAD_REACTORS
330
1B
102
}
100
AcDbMlineStyle
  2
STANDARD
 70
             0
  3

 62
             0
 51
90.0
 52
90.0
 71
             2
 49
0.5
 62
           256
  6
BYLAYER
 49
-0.5
 62
           256
  6
BYLAYER
  0
ENDSEC
  0
EOF
